PrimaNota.ru - самый крупный в мире бесплатный архив песенных текстов, аккордов, табулатур и нот


Vinicio Capossela - Il Pugile Sentimentale - аккорды и текст, видео

Регистрация Запомнить меня
Войти через:  Facebook Google Twitter Vk Yandex Mail.ru

Vinicio Capossela - Il Pugile Sentimentale - аккорды и текст, видео

Печатать
Просмотров: 115
Il Pugile Sentimentale
Vinicio Capossela
		   --------

 IL PUGILE SENTIMENTALE (Vytsoskij - Sacchi) V.Capossela


questa è una bozza del'intro ... dubito che sa corretta.. come per il resto
della canzone d'altronde.. se ne avete della altre versione postatele grazie

-10-10--9-9---7--------|-------7--10--9-----------
-------------------8---|--8-8------------7--------
-----------------------|-------------------------
-----------------------|-------------------------
-----------------------|-------------------------
-----------------------|-------------------------

------------------------|-----------------------
-10-10--8-8--7----------|----------------------
------------------6-----|--9-9----7-----------------
------------------------|------------9-------------
------------------------|-------------------------
------------------------|-------------------------


Bm
Un pugno, ancora un pugno

Em7
e un altro sullo slancio

A7
ed ecco Blek Mcigno

D
mi centra con un gancio

Em
all'angolo mi spinge,

Bm
a stento me la squaglio,

C#7
un appercut mi stende,

F#7
(sì ieri stavo meglio).


Bm,Em7,A7,D

E Blek Mcigno pensa,
fracassandomi una spalla
che la vita è proprio bella,
sì è proprio una beltà.
Al sette ancora striscio
con le mie cugine in pianto,
mi alzo, tengo e sguscio
guadagno qualche punto,

Em7,Bm,C#7,F#7
non è che io lo faccia
perché ho in testa qualche piano,
ma non so dar pugni in faccia
da quando ero bambino.



E Blek Macigno pensa
(e mi frantuma la mascella)
che la vita è proprio bella
sì è proprio una beltà.
B fischia giù in tribuna:
dagliene perché è un vigliacco,
nel corpo a corpo mena,
alle corde mi rannicchio,

avanza, è un siberiano
grossolano e assai ostinato
gli dico: vacci piano,
sei stanco, tira il fiato.

Ma lui non sta a sentirmi
e ansimando si scervella
che la vita è proprio bella,
sì l' è proprio una beltà.
E scassa e se la spassa
con la mia incapacità
la boxe non è una rissa,
ma sport e bla bla bla....

Colpisce, è un uragano,
si accascia poi stremato
e mi alzano la mano
che non ha mai picchiato.
A vita è proprio okay
lui dice, e pensa un po',
sarà okappa per qualcuno,
per gli altri è kappaò.


     
Добавлено: 08.06.2013
Другие материалы по этой песне:
  • Аккорды и текст

Страница создана 08.06.2013
http://primanota.ru/vinicio-capossela/il-pugile-sentimentale-chords.htm
Привет, Гость.
Предлагаем пройти революционный курс по гитаре.
Подарок от PrimaNota.Ru, забирай!