PrimaNota.ru - самый крупный в мире бесплатный архив песенных текстов, аккордов, табулатур и нот


Vineyard Music - Your Beloved - аккорды и текст, таба, видео

Регистрация Запомнить меня
Войти через:  Facebook Google Twitter Vk Yandex Mail.ru

Vineyard Music - Your Beloved - аккорды и текст, таба, видео

Печатать
Просмотров: 139
Уроки эстрадного вокала в Санкт-Петербурге
Your Beloved
Vineyard Music
		   e: Fri, 24 Apr 1998 19:42:45 -0400 (EDT)

   Song Title: 'Your Beloved',
   C.D. Title- Jesus Lead On, "Touching the Father's Heart" Series


     Intro: G Bm7 C G-D Em D G C D

     Verse: G           Bm7     C          G  D
	    Lord it was you who created the heavens.
	    G           Bm7       C                          D
            Lord it was your hand that put the stars in their place.
	    G          Bm7        C                G  D
	    Lord is it your voice that commands the mornings,
	         Em     D         G                      D   C
	    even oceans and their waves will bow at your feet.
	    Am7          Em7                  C        D
	    Lord, who am I compared with your glory, oh Lord?
	    Am7          Em7                  C      D
 	    Lord, who am I compared with your majesty?

     Chorus:          G             Em
	    I am your beloved, your creation,
	            C           D
 	    and you love me as I am.
	                       G               Em
	    You have called me chosen for your kingdom,
               C                D
 	    unashamed to call me your own,
                        Em   D     G   C  C
	    I am your beloved.

Intro
Verse
Chorus
Verse
Chorus(2x)

	There is a constant rhythm that goes through the song, so to save
space I will tell you the rhythm and I will write it out the first few
times. It is Down----Down Up----Up Down Up. You do that over and over
again. It is simple, but I love this song. It truly is one of my
favorites, and I fell in love with it when I first heard it.

Intro:  			(you should get the point by now)
------|--3-----3--3-----3--3--3--2-----2--2-----2--2--2--0...the
------|--3-----3--3-----3--3--3--3-----3--3-----3--3--3--3...rest
------|--0-----0--0-----0--0--0--2-----2--2-----2--2--2--0...of the
--0h2-|--0-----0--0-----0--0--0--0-----0--0-----0--0--0--2...chords are
------|--2-----2--2-----2--2--2--0-----0--0-----0--0--0--3...like this
------|--3-----3--3-----3--3--3--2-----2--2-----2--2--2--0...for the intro

            G  (down, down)
            D  (up, up down up)
these next  Em (down, down)                 3--2--0--2--3--0--0----
chords for  D  (up, up down up)	            3--3--0--3--3--3--1----
the intro   G  (down, down)	 	    0--2--0--2--0--0--0----
are like    C (up, up down up) 	    0--0--2--0--0--2--2----
this 	    C (regular rhythm)             2--0--2--0--2--3--3----
rhythmwise  C  (regular rhythm)	            3--2--0--2--3--0--0----

Verse:
  1	      2       3           4          1           2       3
--3-----------2-------0-----------3--2----|--3-----------2-------0--------------
--3-----------3-------3-----------3--3----|--3-----------3-------3--------------
--0-----------2-------0-----------0--2----|--0-----------2-------0--------------
--0-----------0-------2-----------0--0----|--0-----------0-------2--------------
--2-----------0-------3-----------2--0----|--2-----------0-------3--------------
--3-----------2-------0-----------3--2----|--3-----------2-------0--------------
  Lord it was you who created the heavens,   Lord it was you who put the

            	 4	1           2          3                 4
----------------2-----|-3-----------2----------0-----------------3--2-----------
----------------3-----|-3-----------3----------3-----------------3--3-----------
----------------2-----|-0-----------2----------0-----------------0--2-----------
----------------0-----|-0-----------0----------2-----------------0--0-----------
----------------0-----|-2-----------0----------3-----------------2--0-----------
----------------2-----|-3-----------2----------0-----------------3--2-----------
 stars in their place.  Lord, it is your voice that commands the mornings,

------0------2---------3-----------------2---0-|-0------------0-----------------
------0------3---------3-----------------3---3-|-1------------0-----------------
------0------2---------0-----------------2---0-|-0------------0-----------------
------2------0---------0-----------------0---2-|-2------------0-----------------
------2------0---------2-----------------0---3-|-0------------2-----------------
------0------2---------3-----------------2---0-|-0------------0-----------------
 even oceans and their waves bow at your feet.   Lord, who am I compared

-----------0---------2-----|-0------------0--------------------0-------2--------
-----------3---------3-----|-1------------0--------------------3-------3--------
-----------0---------2-----|-0------------0--------------------0-------2--------
-----------2---------0-----|-2------------0--------------------2-------0--------
-----------3---------0-----|-0------------2--------------------3-------0--------
-----------0---------2-----|-0------------0--------------------0-------2--------
 with your glory, oh Lord?   Lord, who am I compared with your majesty?

Chorus:

-----------3-------------0-----------------0------------2-----------------------
-----------3-------------0-----------------3------------3-----------------------
-----------0-------------0-----------------0------------2-----------------------
-----------0-------------2-----------------2------------0-----------------------
-----------2-------------2-----------------3------------0-----------------------
-----------3-------------0-----------------0------------2-----------------------
 I am your beloved, your creation, and you love me as I am.

-------------------3---------------0-----------0-----------------2--------------
-------------------3---------------0-----------3-----------------3--------------
-------------------0---------------0-----------0-----------------2--------------
-------------------0---------------2-----------2-----------------0--------------
-------------------2---------------2-----------3-----------------0--------------
-------------------3---------------0-----------0-----------------2--------------
You have called me chosen for your kingdom, unashamed to call me your own.

-------------------0---2-----3--0--0-----0-- (this is the last chord
-------------------0---3-----3--3--3-----1--  of the song when you get
-------------------0---2-----0--0--0-----0--  through the chorus twice
-------------------2---0-----0--2--2-----2--  at the end, C)
-------------------2---0-----2--3--3-----3--
-------------------0---2-----3--0--0-----0--
 I am your beloved.....

				      THE END     
Добавлено: 26.07.2013
Другие материалы по этой песне:
  • Аккорды и текст

Страница создана 24.05.2012
http://primanota.ru/vineyard-music/your-beloved-chords.htm
Привет, Гость.
Предлагаем пройти революционный курс по гитаре.
Подарок от PrimaNota.Ru, забирай!