PrimaNota.ru - самый крупный в мире бесплатный архив песенных текстов, аккордов, табулатур и нот


Vineyard Music - Lord Your Near - таба, видео

Регистрация Запомнить меня
Войти через:  Facebook Google Twitter Vk Yandex Mail.ru

Vineyard Music - Lord Your Near - таба, видео

Печатать
Просмотров: 49
                                          Artist - Vineyard Music
                                         *************************
                                          Song - Lord You're Near
                                         *************************
                                             Album - Beautiful 
                                            *******************
                                           Tabbed By - Ayreon77
                                          **********************




ACOUSTIC
*********
This Is The Picking Pattern, Play it Until The Strumming Comes In.

 F
[------------------------|------------------------]
[-------------1----------|-------------1----------]
[-------2--------2-----2-|-------2--------2-----2-]
[----3-----3--------3----|----3-----3--------3----]
[------------------------|------------------------]
[-1----------------------|-1----------------------]

 C
[------------------------|------------------------]
[-------------1----------|-------------1----------]
[-------0--------0-----0-|-------0--------0-----0-]
[----2-----2--------2----|----2-----2--------2----]
[------------------------|------------------------]
[-3----------------------|-3----------------------]

 Am
[------------------------|------------------------]
[-------------1----------|-------------1----------]
[-------2--------2-----2-|-------2--------2-----2-]
[----2-----2--------2----|----2-----2--------2----]
[-0----------------------|-0----------------------]
[------------------------|------------------------]

 G
[------------------------|------------------------]
[-------------1----------|-------------1----------]
[-------0--------0-----0-|-------0--------0-----0-]
[----0-----0--------0----|----0-----0--------0----]
[------------------------|------------------------]
[-3----------------------|-3----------------------]


----------------------------------------------------------
VERSE 1
********
F              C       Am               G
   Lord You're near to those who are discouraged
F           C              Am       G
   You save those who have lost all hope
F                  C            Am               G
   You've taken my sorrow and surrounded me with joy
F                   C        Am             G
   You're here with me, Your touch gives me life

----------------------------------------------------------
Strum
CHORUS
*******
F              Am
  To You, oh Lord,
         G        F
Must the glory be given [repeat 4x]

----------------------------------------------------------
BRIDGE
*******
             G            Am                  G
Lord, You're near, I feel secure, nothing can take me
F              G                 Am         G
   I know Your love will be with me for all time
F              G           Am   G
   Oh Lord You know what I long for
F               G            Am          G
   You're all I want in this life, don't leave me

----------------------------------------------------------
Strum
CHORUS
*******
----------------------------------------------------------
02:54
Electric Small Solo - Play this Throughout the Praise Him (below)
*********************

 GUITAR 1
[-8--7-8-7-8----8--7-8-7-8-----8--7-8-7-8-----8--7-8-7---]
[--------------------------------------------------------]
[--------------------------------------------------------]
[--------------------------------------------------------]
[--------------------------------------------------------]
[--------------------------------------------------------]
|                                                        |
|GUITAR 2                                                |
[--------------------------------------------------------]
[--------------------------------------------------------]
[--------------------------------------------------------]
[10--9-10-9 10--10--9-10-9-10--10--9-10-9-10--10--9-10-9-]
[--------------------------------------------------------]
[--------------------------------------------------------]


 GUITAR 1
[-7--5-7-5-7---7--5-7-5-7---7--5-7-5-7---7--5-7-5-]
[-------------------------------------------------]
[-------------------------------------------------]
[-------------------------------------------------]
[-------------------------------------------------]
[-------------------------------------------------]
|                                                 |
|GUITAR 2                                         |
[-------------------------------------------------]
[-------------------------------------------------]
[-------------------------------------------------]
[-9--7-9-7-9---9--7-9-7-9---9--7-9-7-9---9--7-9-7-]
[-------------------------------------------------]
[-------------------------------------------------]Repeat 


----------------------------------------------------------
F            G           Am          C
      Praise Him, praise Him, praise Him,
             G           F
      Praise Him, praise Him, praise Him
G                        Am          C
      Praise Him, praise Him, praise Him,
F            G
      Praise Him, praise Him


----------------------------------------------------------
Strum
CHORUS
*******
----------------------------------------------------------
04:27
Small Solo Notes
*****************

[---------------------------------------------------------------]
[-10--8-10-8-10---10--8-10-8-10---10--8-10-8-10---10--8-10-8-10-]
[---------------------------------------------------------------]
[---------------------------------------------------------------]
[---------------------------------------------------------------]
[---------------------------------------------------------------]


        Am           G           F
hallelujah, hallelujah, hallelujah,
C           Am  G
    hallelujah, hallelujah, 


Enjoy...........
Добавлено: 14.04.2016
Вам также может быть интересно:
Другие материалы по этой песне:
  • Аккорды и текст

Страница создана 14.04.2016
http://primanota.ru/vineyard-music/lord-your-near-chords.htm
Привет, Гость.
Предлагаем пройти революционный курс по гитаре.
Подарок от PrimaNota.Ru, забирай!