PrimaNota.ru - самый крупный в мире бесплатный архив песенных текстов, аккордов, табулатур и нот


Vines - Spaceship - текст песни, таба, бас-таба, видео

Регистрация Запомнить меня
Войти через:  Facebook Google Twitter Vk Yandex Mail.ru

Vines - Spaceship - текст песни, таба, бас-таба, видео

Печатать
Просмотров: 305
The Vines - Spaceship (Solo)
By Jonathan Sing Key and Jammeh
Note: the first part of the solo was  not written by me but Jammeh from
http://thevines.forumsunlimited.com the second part is by me
I felt the tab could not be completed without the other part of the solo
to go with it.

This is my first tab so be kind...
(seriously i'm 14...started playing this year)
If you have any corrections please comment on it and any advice and or
comments are appreciated!!!


1st part

e ----------------------------------------------------|
B ---------19b20-19-17-15-17-15-14-14-15-14-12-14b-12-|
G s14b-16b--------------------------------------------|
D ----------------------------------------------------|
A ----------------------------------------------------|
E ----------------------------------------------------|

e ---------------------------------------------------|
B ---------------------------------------------------|
G 4-7-9-7-9h11-9-7-6-7-6-4-4h6-4-7h9-7-------7-------|
D -------------------------------------9-7h9---9-7-9-|
A ---------------------------------------------------|
E ---------------------------------------------------|

e ---------------------|
B ---------------------|
G 11~~~----------------|
D ------9~~~-6~~~-5~~~-| x2
A ---------------------|
E ---------------------|

e ----------------------------------------------------------------|
B 19----19--------------------------------------------------------|
G ---16----16 Lots of times, towards the end start bending the 16-| up
D ----------------------------------------------------------------|
A ----------------------------------------------------------------|
E ----------------------------------------------------------------|


2nd part

                                          *big bends start here
e ---------------------------------------------------|
B ---------------------------------------------------|
G ----------13b--------------------------16b18-18b20-|
D -9b-11b-9-----11--12--11-9--11-12-11-9-------------|
A ---------------------------------------------------|
E ---------------------------------------------------|

e ---------------------------------------------------|
B ----17---------------------------------------------|
G -16----7-9-11-9-7-6-7-6-4-2------------------------|
D ---------------------------------------------------|
A ---------------------------------------------------|
E ---------------------------------------------------|

e ---------------------|
B ---------------------|
G 11~~~----------------|
D ------9~~~-6~~~-5~~~-| x2
A ---------------------|
E ---------------------|
Добавлено: 07.04.2012
Другие материалы по этой песне:

Страница создана 07.03.2012
http://primanota.ru/vines/spaceship-chords.htm
Привет, Гость.
Предлагаем пройти революционный курс по гитаре.
Подарок от PrimaNota.Ru, забирай!