PrimaNota.ru - самый крупный в мире бесплатный архив песенных текстов, аккордов, табулатур и нот


Vines - Outatthaway - таба, видео

Регистрация Запомнить меня
Войти через:  Facebook Google Twitter Vk Yandex Mail.ru

Vines - Outatthaway - таба, видео

Печатать
Просмотров: 59
The Vines
Outtatheway!
Tabber: Tim	
Email: afgnirvana@rock.com
This is one of my first songs, good song.

Intro/Verse: (Clean)
e|----------------------------| If you cant play this verse you will have trouble all 
B|-2-2--------0-2-2----55-5-5-| the way through the song.
G|-2-2-x-xx-0-0-2-2-xx-55-5-5-|
D|-2-2-x-xx-0-0-2-2-xx-55-5-5-|
A|-0-0-x-xx-x-0-0-0-xx-33-3-3-|
E|-----x-xx-3-------xx--------|

2nd part of verse:                                 
e|-----------------------------------|
B|-2-2------------------------33-3-3-|
G|-2-2-x-xx--2-2-x-4--4-4-x-x-33-3-3-|
D|-2-2-x-xx--3-3-x-5--5-5-x-x-33-3-3-|
A|-0-0-x-xx--3-3-x-5--5-5-x-x-11-1-1-|
E|-----x-xx--1-1-x-3--3-3-x-x--------|

Chorus(Distorted)
e|--------------------------------------------------------|
B|----------------5-5-5--------4-4-4-4-4-4--7-7-7-5-5-5---|
G|-6-6-6-6-6-6-6--5-5-5-4-4-4--4-4-4-4-4-4--7-7-7-5-5-5---|
D|-7-7-7-7-7-7-7--5-5-5-5-5-5--4-4-4-4-4-4--7-7-7-5-5-5---|
A|-7-7-7-7-7-7-7--3-3-3-5-5-5--2-2-2-2-2-2--5-5-5-3-3-3---|
E|-5-5-5-5-5-5-5--------3-3-3-----------------------------|
  "gottagetouttathaway..."

Solo:(Distorted)
e|----------------------------------------------------------------|
B|----------------------------------------------------------------|
G|----------------------------------------------------------------|
D|----/7-5----------------------------/7-5------------------------|
A|----------7-5^--3-3--0-3-5 5/7------------7-5^--3-3--0-3-5 5/7--|
E|-5-----------------------------5-5------------------------------|

e|----------------------------------------------------------------|
B|----------------------------------------------------------------|
G|----------------------------------------------------------------|
D|-----/7-5----------------------------/7-5-----------------------|
A|-----------7-5^--3-3--0-3-5 5/7------------7-5^--3-3--0-3-5 5/7-|
E|-5-3-----------------------------5-5----------------------------

e|----------------------------------------------------------------|
B|----------------------------------------------------------------|
G|------7-5-------------5-----------7-5--7-5-7/9-9-7^-5-----------|
D|----------7-5-----5-7---7-5---------------------------7-5-------|
A|--------------5h7-----------7-----------------------------------|
E|-5-5---------------------------5--------------------------------|

e|----------------------------------------------------------------|
B|--5-4-3-5-4-3-5-4-3-5-4-3-5-4-3---------------------------------|
G|--------------------------------5-------------------------------|
D|----------------------------------7--7-5------------------------|
A|-----------------------------------------7-5^-3-3-0-3-5-5/7-----|
E|-------------------------------------------------------------5-5|

After solo: play chorus Palm muted
e|--------------------------------------------------------|
B|----------------5-5-5--------4-4-4-4-4-4--7-7-7-5-5-5---|
G|-6-6-6-6-6-6-6--5-5-5-4-4-4--4-4-4-4-4-4--7-7-7-5-5-5---|
D|-7-7-7-7-7-7-7--5-5-5-5-5-5--4-4-4-4-4-4--7-7-7-5-5-5---|
A|-7-7-7-7-7-7-7--3-3-3-5-5-5--2-2-2-2-2-2--5-5-5-3-3-3---|
E|-5-5-5-5-5-5-5--------3-3-3-----------------------------|
pm........................................................


Outro:
e|-----------------------|
B|-----------------------|
G|-6--6-x-x-x-4-4-x-x-6~-|
D|-7--7-x-x-x-5-5-x-x-7~-|
A|-7--7-x-x-x-5-5-x-x-7~-|
E|-5--5-x-x-x-3-3-x-x-5~-|

?, comments e-mail me.

Добавлено: 25.07.2013
Другие материалы по этой песне:
  • Аккорды и текст

Страница создана 25.07.2013
http://primanota.ru/vines/outatthaway-chords.htm
Привет, Гость.
Предлагаем пройти революционный курс по гитаре.
Подарок от PrimaNota.Ru, забирай!