PrimaNota.ru - самый крупный в мире бесплатный архив песенных текстов, аккордов, табулатур и нот


Vines - Hot Leather - аккорды и текст, таба, видео

Регистрация Запомнить меня
Войти через:  Facebook Google Twitter Vk Yandex Mail.ru

Vines - Hot Leather - аккорды и текст, таба, видео

Печатать
Просмотров: 136
Уроки эстрадного вокала в Санкт-Петербурге
Hot Leather
Vines
The Vines - Hot Leather
Found on Get Free single

Tabbed by Jimbob
Submitted by Nirvana3240

Intro/Verse Riff:
G|--------------------
D|--------/8----------
A|------3-/6---3------
E|-/5-5----------5-3--

Verse 1:
Wherever, you are....
Wear leather, guitar....
Feels good and, alive...
When I'm floatin', to rhyme....

Chorus:
G|----------------------------------------------------------------------
D|-------/8--------------/8---------------/8----------------/8----------
A|-----3-/6--5-3-------3-/6--5-3--------3-/6---3----------3-/6---3------
E|-1-1-----------5-1-1-----------5-/5-5----------5-3-/5-5----------5-3--
                   All you're doing is killing time....
                   And all I'm doing is killing mine...

Verse 2:
I'm layin', in the....
Cause I'm sunshine....
Feels good and, alive....
When I'm floatin', to rhyme....

Chorus:
All you're doing is killing time....
And all I'm doing is fuckin' mine....

Middle Bit:
D              C
But it feels alright...., (I don't care)
D              C
If you say it tonight...., (I don't care)
D              C
(Round n' round n' round)
D              C
(Awwwwwwwww)

Repeat Verse Riff
End on A notes.



     
Добавлено: 19.11.2013
Другие материалы по этой песне:

Страница создана 02.04.2012
http://primanota.ru/vines/hot-leather-chords.htm
Привет, Гость.
Предлагаем пройти революционный курс по гитаре.
Подарок от PrimaNota.Ru, забирай!