PrimaNota.ru - самый крупный в мире бесплатный архив песенных текстов, аккордов, табулатур и нот


Vines - Highly elvolved - бас-таба, видео

Регистрация Запомнить меня
Войти через:  Facebook Google Twitter Vk Yandex Mail.ru

Vines - Highly elvolved - бас-таба, видео

Печатать
Просмотров: 78
Уроки эстрадного вокала в Санкт-Петербурге


song: highly elvolved

by: DjeSuS

intro ( anacrouse)
don't play during the intro or the first verse call that sa you like, the bass
player begin to play in the chorus

chorus

G--------------------------------
D--------------------------------
A---------------------------
E--3-5-5-3-5-5-6-6-5-x-x------

2nd verse

G-------------55-------------------
D----------------5----------------
A---999999-3-----------------------------
E---------------------------------

during the solo play the same riff of the verse and during the bridge play the
same riff of the chorus and the riff is the same of the second verse

Добавлено: 09.10.2013
Другие материалы по этой песне:
  • Аккорды и текст

Страница создана 09.10.2013
http://primanota.ru/vines/highly-elvolved-chords.htm
Привет, Гость.
Предлагаем пройти революционный курс по гитаре.
Подарок от PrimaNota.Ru, забирай!