PrimaNota.ru - самый крупный в мире бесплатный архив песенных текстов, аккордов, табулатур и нот


Vines - Hes A Rocker - текст песни, таба, бас-таба, видео

Регистрация Запомнить меня
Войти через:  Facebook Google Twitter Vk Yandex Mail.ru

Vines - Hes A Rocker - текст песни, таба, бас-таба, видео

Печатать
Просмотров: 207
-------------------------------------------------------------------------------
                             He's A Rocker – The Vines
-------------------------------------------------------------------------------
Tabbed by: Sam Smith
Email: Supermonkey1110@btinternet.com

Tuning: EADGBe

Intro/Verse: x2
e|-----------------3-3-3-3---------------------------------------------------|
B|-2-2-2-2-1-1-1-1-3-3-3-3-2-2-2-2-------------------------------------------|
G|-2-2-2-2-0-0-0-0-0-0-0-0-2-2-2-2-------------------------------------------|
D|-2-2-2-2-2-2-2-2-0-0-0-0-2-2-2-2-------------------------------------------|
A|---------3-3-3-3-2-2-2-2---------------------------------------------------|
E|-----------------3-3-3-3---------------------------------------------------|

Chorus: x2
e|---------------------------------------------------------------------------|
B|---------------------------------------------------------------------------|
G|-22222222-55555555---------------------------------------------------------|
D|-22222222-55555555-55555555-77777777---------------------------------------|
A|-00000000-33333333-55555555-77777777---------------------------------------|
E|-------------------33333333-55555555---------------------------------------|

Verse: x2

Chorus: x2

Bridge: x2
e|---------------------------------------------------------------------------|
B|---------------------------------------------------------------------------|
G|-----------------5-5-5-5-8-8-8-8-------------------------------------------|
D|-3-3-3-3-6-6-6-6-5-5-5-5-8-8-8-8-------------------------------------------|
A|-3-3-3-3-6-6-6-6-3-3-3-3-6-6-6-6-------------------------------------------|
E|-1-1-1-1-4-4-4-4-----------------------------------------------------------|

Bridge Part 2: x2
e|---------------------------------------------------------------------------|
B|---------------------------------------------------------------------------|
G|-2-0-2-0-2-5---------------------------------------------------------------|
D|--------------5-2-5-2-5-7--------------------------------------------------|
A|---------------------------------------------------------------------------|
E|---------------------------------------------------------------------------|

Chorus: x2

Outro: x1
e|---------------------------------------------------------------------------|
B|---------------------------------------------------------------------------|
G|-----------------5---------------------------------------------------------|
D|-3-3-3-3-6-6-6-6-5---------------------------------------------------------|
A|-3-3-3-3-6-6-6-6-3---------------------------------------------------------|
E|-1-1-1-1-4-4-4-4-----------------------------------------------------------|


| /  slide up
| \  slide down
| h  hammer-on
| p  pull-off
| ~  vibrato
| +  harmonic
| x  Mute note
===============================================================================
Добавлено: 04.03.2012
Другие материалы по этой песне:

Страница создана 21.02.2012
http://primanota.ru/vines/hes-a-rocker-chords.htm
Привет, Гость.
Предлагаем пройти революционный курс по гитаре.
Подарок от PrimaNota.Ru, забирай!