PrimaNota.ru - самый крупный в мире бесплатный архив песенных текстов, аккордов, табулатур и нот


Vines - Fuck Yeh - текст песни, таба, видео

Регистрация Запомнить меня
Войти через:  Facebook Google Twitter Vk Yandex Mail.ru

Vines - Fuck Yeh - текст песни, таба, видео

Печатать
Просмотров: 104
  E  E  E  E   E   E   E  E     W                 3x  Q.     Q.     E  E   
------------------------------|--------------------||----------------------|
------------------------------|--------------------||----------------------|
*-----------------------------|-------------------*||----------------------|
*-----------------------------|-------------------*||----------------------|
---8--8--8--8--10--10--10--5--|--L-----------------||--8------5------6--5--|
---6--6--6--6---8---8---8--3--|--L-----------------||--6------3------4--3--|


                        PM PM PM PM  PM  PM  PM PM  
  W.                    E  E  E  E   E   E   E  E   
-------------------||------------------------------|
-------------------||------------------------------|
-------------------||*-----------------------------|
-------------------||*-----------------------------|
--L----------------||---8--8--8--8--10--10--10--5--|
--L----------------||---6--6--6--6---8---8---8--3--|


  PM PM PM PM PM PM PM PM                                   
  E  E  E  E  E  E  E  E   4x   E  E  E  E   E   E   E  E   
---------------------------||------------------------------|
---------------------------||------------------------------|
--------------------------*||*-----------------------------|
--------------------------*||*-----------------------------|
--5--5--5--5--5--5--5--5---||---8--8--8--8--10--10--10--5--|
--3--3--3--3--3--3--3--3---||---6--6--6--6---8---8---8--3--|


  E  E  E  E  E  E  E  E   3x  Q.     Q.     E  E       W                 
---------------------------||----------------------||--------------------|
---------------------------||----------------------||--------------------|
--------------------------*||----------------------||*-------------------|
--------------------------*||----------------------||*-------------------|
--L--5--5--5--5--5--5--5---||--8------5------6--5--||---3----------------|
--L--3--3--3--3--3--3--3---||--6------3------4--3--||---1----------------|


  W                 3x  W                   W                 
--------------------||-------------------|-------------------|
--------------------||-------------------|-------------------|
-------------------*||-------------------|-------------------|
-------------------*||-------------------|-------------------|
--5-----------------||--8----------------|--6----------------|
--3-----------------||--6----------------|--4----------------|


    PM PM PM PM  PM  PM  PM PM    PM PM PM PM PM PM PM PM    
    E  E  E  E   E   E   E  E     E  E  E  E  E  E  E  E   4x
|------------------------------|---------------------------||
|------------------------------|---------------------------||
|*-----------------------------|--------------------------*||
|*-----------------------------|--------------------------*||
|---8--8--8--8--10--10--10--5--|--5--5--5--5--5--5--5--5---||
|---6--6--6--6---8---8---8--3--|--3--3--3--3--3--3--3--3---||


   E  E  E  E   E   E   E  E     E  E  E  E  E  E  E  E   3x
------------------------------|---------------------------||
------------------------------|---------------------------||
*-----------------------------|--------------------------*||
*-----------------------------|--------------------------*||
---8--8--8--8--10--10--10--5--|--5--5--5--5--5--5--5--5---||
---6--6--6--6---8---8---8--3--|--3--3--3--3--3--3--3--3---||


  Q.     Q.     E  E     W.                    E  E  E  E   E   E   E  E   
----------------------|-------------------||------------------------------|
----------------------|-------------------||------------------------------|
----------------------|-------------------||*-----------------------------|
----------------------|-------------------||*-----------------------------|
--8------5------6--5--|--L----------------||---8--8--8--8--10--10--10--5--|
--6------3------4--3--|--L----------------||---6--6--6--6---8---8---8--3--|


  E  E  E  E  E  E  E  E   3x  Q.     Q.     E  E     W                 
---------------------------||----------------------|-------------------|
---------------------------||----------------------|-------------------|
--------------------------*||----------------------|-------------------|
--------------------------*||----------------------|-------------------|
--5--5--5--5--5--5--5--5---||--8------5------6--5--|--L----------------|
--3--3--3--3--3--3--3--3---||--6------3------4--3--|--L----------------|


  Q.     Q    E  E     W                   W                  
--------------------|-------------------|-------------------||
--------------------|-------------------|-------------------||
--------------------|-------------------|-------------------||
--------------------|-------------------|-------------------||
--8------5----6--5--|--L----------------|--L----------------||
--6------3----4--3--|--L----------------|--L----------------||




Duration Legend
---------------
W - whole
H - half
Q - quarter
E - 8th
S - 16th
T - 32nd
X - 64th
. - note dotted
|-n-|  - n-tuplets


Tablature Legend
----------------
L - tied note
x - dead note
g - grace note
(n) - ghost note
> - accentuded note
NH - natural harmonic
AH - artificial harmonic
TH - tapped harmonic
SH - semi harmonic
PH - pitch harmonic
h - hammer on
p - pull off
b - bend
br - bendRelease
pb - preBend
pbr - preBendRelease
brb - bendReleaseBend
\n/ - tremolo bar dip
\n - tremolo bar dive
-/n - tremolo bar Release up
/n\ - tremolo bar inverted dip
/n - tremolo bar return
-\n - tremolo bar Release down
S - shift slide
s - legato slide
/ -  slide into from below or out of upwards
\ -  slide into from above or out of downwards
~ - vibrato
W - wide vibrato
tr - trill
TP - tremolo picking
T - tapping
S - slap
P - pop
< - fade in
^ - brush up
v - brush down
Добавлено: 15.11.2013
Другие материалы по этой песне:
  • Аккорды и текст

Страница создана 15.11.2013
http://primanota.ru/vines/fuck-yeh-chords.htm
Привет, Гость.
Предлагаем пройти революционный курс по гитаре.
Подарок от PrimaNota.Ru, забирай!