PrimaNota.ru - самый крупный в мире бесплатный архив песенных текстов, аккордов, табулатур и нот


Vince Gill - Without You - бас-таба, видео

Регистрация Запомнить меня
Войти через:  Facebook Google Twitter Vk Yandex Mail.ru

Vince Gill - Without You - бас-таба, видео

Печатать
Просмотров: 109
Vince Gill 
Without you

Bass Tabs

Tuning : EADG
Tempo: 143 bpm 
Key:D#

Intro: 00:01
G|---------|---------|-------5-||---------|-
D|-------3-|-------5-|---5-8---||---8-6-5-|-
A|---3-6---|---5-8---|-6-------||-6-------|- 
E|-4-------|-6-------|---------||---------|-


Verse1: 00:07
G|-------5-|---------|-------5-||---------|-
D|---5-8---|-------3-|---5-8---||---8-6-5-|-
A|-6-------|---3-6---|-6-------||-6-------|- 
E|---------|-4-------|---------||---------|-
Every time I look into the mirror
G|-------5-|---------||-------------------|-
D|---5-8---|-------3-||-------5--8-6-5----|-
A|-6-------|---3-6---||---5-8----------8g-|- 
E|---------|-4-------||-6-----------------|-
But I swear that I don't see the things you do
G|-------5-|---------|-------5-||---------|-
D|---5-8---|-------3-|---5-8---||---8-6-5-|-
A|-6-------|---3-6---|-6-------||-6-------|- 
E|---------|-4-------|---------||---------|-
You say it couldn't be any clearer
G|---------|---------|-------5-||---------|-
D|-------3-|-------5-|---5-8---||---------|-
A|---3-6---|---5-8---|-6-------||-6-6.----|- 
E|-4-------|-6-------|---------||---------|-
And all I can see is me without you


Chorus1: 00:33
G|---------|---------||--------5-8-5------|-
D|-------3-|-------3-||---5-8---------8-5-|-
A|---3-6---|---3-6---||-6-----------------|-  
E|-4-------|-4-------||-------------------|-
Without you trying to change me, 
without you trying to take me
G|-------5-|---------||-------------------|-
D|---5-8---|-------3-||-------5--8-6-5----|-
A|-6-------|---3-6---||---5-8----------8g-|- 
E|---------|-4-------||-6-----------------|-
Turn me into someone you once knew
G|---------|---------||--------5-8-5------|-
D|-------3-|-------3-||---5-8---------8-5-|-
A|---3-6---|---3-6---||-6-----------------|- 
E|-4-------|-4-------||-------------------|-
Without you trying to make me, 
without you trying to break me
G|---------|---------|-------5-||---------|-
D|-------3-|-------5-|---5-8---||---8-6-5-|-
A|---3-6---|---5-8---|-6-------||-6-------|- 
E|-4-------|-6-------|---------||---------|-
All I can see is me without you


Interlude: 01:00
G|---------|---------|-------5-||---------|-
D|-------3-|-------5-|---5-8---||---8-6-5-|-
A|---3-6---|---5-8---|-6-------||-6-------|- 
E|-4-------|-6-------|---------||---------|-


Verse2: 01:07
G|-------5-|---------|-------5-||---------|-
D|---5-8---|-------3-|---5-8---||---8-6-5-|-
A|-6-------|---3-6---|-6-------||-6-------|- 
E|---------|-4-------|---------||---------|-
When you slipped that little ring around my finger
G|-------5-|---------||-------------------|-
D|---5-8---|-------3-||-------5--8-6-5----|-
A|-6-------|---3-6---||---5-8----------8g-|- 
E|---------|-4-------||-6-----------------|-
You smiled and said your wilder days are through
G|-------5-|---------|-------5-||---------|-
D|---5-8---|-------3-|---5-8---||---8-6-5-|-
A|-6-------|---3-6---|-6-------||-6-------|- 
E|---------|-4-------|---------||---------|-
Well I've got a real bad case of rambling fever
G|---------|---------|-------5-||---------|-
D|-------3-|-------5-|---5-8---||---------|-
A|---3-6---|---5-8---|-6-------||-6-6.----|- 
E|-4-------|-6-------|---------||---------|-
And all I can see is me without you


Chorus2: 01:34
G|---------|---------||-------5-8-5------|-
D|-------3-|-------3-||---5-8--------8-5-|-
A|---3-6---|---3-6---||-6----------------|-  
E|-4-------|-4-------||------------------|-
Without you trying to change me, 
without you trying to take me
G|-------5-|---------||------------------|-
D|---5-8---|-------3-||-------5--8-6-5---|-
A|-6-------|---3-6---||---5-8----------8-|- 
E|---------|-4-------||-6----------------|-
Turn me into someone you once knew
G|---------|---------||-------5-8-5------|-
D|-------3-|-------3-||---5-8--------8-5-|-
A|---3-6---|---3-6---||-6----------------|- 
E|-4-------|-4-------||------------------|-
Without you trying to make me, 
without you trying to break me
G|---------|---------|-------5-||---------|-
D|-------3-|-------5-|---5-8---||---8-6-5-|-
A|---3-6---|---5-8---|-6-------||-6-------|- 
E|-4-------|-6-------|---------||---------|-
All I can see is me without you


Instrumental: 02:01
G|-------5-|---------|-------5-||---------|-
D|---5-8---|-------3-|---5-8---||---8-6-5-|-
A|-6-------|---3-6---|-6-------||-6-------|- 
E|---------|-4-------|---------||---------|-

G|-------5-|---------||-------------------|-
D|---5-8---|-------3-||-------5--8-6-5----|-
A|-6-------|---3-6---||---5-8----------8g-|- 
E|---------|-4-------||-6-----------------|-

G|-------5-|---------|-------5-||---------|-
D|---5-8---|-------3-|---5-8---||---8-6-5-|-
A|-6-------|---3-6---|-6-------||-6-------|- 
E|---------|-4-------|---------||---------|-

G|---------|---------|-------5-||---------|-
D|-------3-|-------5-|---5-8---||---------|-
A|---3-6---|---5-8---|-6-------||-6-6.----|- 
E|-4-------|-6-------|---------||---------|-


Chorus3: 02:28
G|---------|---------||-------5-8-5------|-
D|-------3-|-------3-||---5-8--------8-5-|-
A|---3-6---|---3-6---||-6----------------|-  
E|-4-------|-4-------||------------------|-
Without you trying to change me, 
without you trying to take me
G|-------5-|---------||------------------|-
D|---5-8---|-------3-||-------5--8-6-5---|-
A|-6-------|---3-6---||---5-8----------8-|- 
E|---------|-4-------||-6----------------|-
Turn me into someone you once knew
G|---------|---------||-------5-8-5------|-
D|-------3-|-------3-||---5-8--------8-5-|-
A|---3-6---|---3-6---||-6----------------|- 
E|-4-------|-4-------||------------------|-
Without you trying to make me, 
without you trying to break me
G|---------|---------|-------5-||---------|-
D|-------3-|-------5-|---5-8---||---8-6-5-|-
A|---3-6---|---5-8---|-6-------||-6-------|- 
E|-4-------|-6-------|---------||---------|-
All I can see is me without you, 


Outro: 02:55
G|---------|---------|-------5-||---------|-
D|-------3-|-------5-|---5-8---||---------|-
A|---3-6---|---5-8---|-6-------||-6~~-----|- 
E|-4-------|-6-------|---------||---------|-
all I can see is me without you

End: 03:10


Tablature Legend ----------------  
| S  slap 
| P  pop 
| x  mute note 
| .  full stop
| /  slide up 
| \  slide down 
| h  hammer-on 
| p  pull-off 
| g  grace note 
| ~  vibrato 
| ^  brush up


D# Scale (for ref.)
G|-------5-8-5------||-------5-8-5------|-
D|---5-8-------8-5--||---5-8-------8-5--|- 
A|-6----------------||-6----------------|-
E|------------------||------------------|-

G|------------------||------------------|-
D|-------3-6-3------||-------3-6-3------|-
A|---3-6-------6-3--||---3-6-------6-3--|- 
E|-4----------------||-4----------------|-

G|-------5-8-5------||-------5-8-5------|-
D|---5-8-------8-5--||---5-8-------8-5--|- 
A|-6----------------||-6----------------|-
E|------------------||------------------|-

G|------------------||------------------|-
D|-------5-8-5------||-------5-8-5------|-
A|---5-8-------8-5--||---5-8-------8-5--|- 
E|-6----------------||-6----------------|-

G|------------------||------------------|-
D|-------3-6-3------||-------3-6-3------|-
A|---3-6-------6-3--||---3-6-------6-3--|- 
E|-4----------------||-4----------------|-

G|-------5-8-5------||-------5-8-5------|-
D|---5-8-------8-5--||---5-8-------8-5--|- 
A|-6----------------||-6----------------|-
E|------------------||------------------|-
Добавлено: 18.10.2015
Вам также может быть интересно:
Другие материалы по этой песне:
  • Аккорды и текст

Страница создана 18.10.2015
http://primanota.ru/vince-gill/without-you-chords.htm
Привет, Гость.
Предлагаем пройти революционный курс по гитаре.
Подарок от PrimaNota.Ru, забирай!