PrimaNota.ru - самый крупный в мире бесплатный архив песенных текстов, аккордов, табулатур и нот


Vince Gill - If I Had My Way - текст песни, таба, видео

Регистрация Запомнить меня
Войти через:  Facebook Google Twitter Vk Yandex Mail.ru

Vince Gill - If I Had My Way - текст песни, таба, видео

Печатать
Просмотров: 112
If I Had My Way
Vince Gill
CD: When Love Finds You

Tabbed by Neil Crane


Intro:
 A                          D                A                         D
-----------------------------------------------------------------------------------|
-----------------------------------------------------------------------------------|
------9-9h11--------------------------------------9-9h11---------------------------|
-9h11--------11--11h12p11/9-----7-7h9----7/9-9h11--------11-11h12p11/9-----7-7h9---|
----------------------------7h9-------9--------------------------------7h9-------9-|
-----------------------------------------------------------------------------------|

      A
Oh if I had my way
           D
We'd love one another
       A
And if I had my way
            D
We'd all live as brothers

Bm                  E
 There'd be no more fussing and fighting
Bm               E
 No more hungry innocent dying
Bm                   E
 I'd make it all go away
            A(begin break)
If I had my way


break:
 A                          D
----------------------------------------|
----------------------------------------|
------9-9h11----------------------------|
-9h11--------11--11h12p11/9-----7-7h9---|
----------------------------7h9-------9-|
----------------------------------------|

   A
If I had my way
           D
I'd carry your burden
       A
And if I had my way
            D
No one would be hurtin'

Bm                  E
 There'd be no more hatred and lying
Bm              E
 No more lonely little kids crying
Bm                   E
 I'd make it all go away
           A
If I had my way
              -------------------|
              -------------------|
              -9/11-9------------|
              --------11/9-------|
              -------------------|
              -------------7h9-5-|


F#m    E           D
Maybe one day the walls will come down
                                  ---------------|
                                  ---------------|
                                  ---------------|
                                  -----7-7h9p7---|
                                  -7h9---------9-|
                                  ---------------|


F#m       E          D              A
If I had my way the lost would be found
                                    -5/7/5---|
                                    -5/7/5-2-|
                                    -------2-|
                                    ---------|
                                    ---------|
                                    ---------|

 F#m         E           D                        E
Love would find a way to turn everything around


solo:
 A                          D                A                         D            D A  
     Bm
-------------------------------------------------------------------------------------------------|
-------------------------------------------------------------------------------------------------|
------9-9h11--------------------------------------9-9h11-----------------------------------------|
-9h11--------11--11h12p11/9-----7-7h9----7/9-9h11--------11-11h12p11/9-----7-7h9----7-9b11r9-7-9-|
----------------------------7h9-------9--------------------------------7h9-------9---------------|
-------------------------------------------------------------------------------------------------|


Bm                  E
 There'd be no more fussing and fighting
Bm                  E
 No more frightened little kids crying
Bm                   E
 I'd make it all go away
            A
If I had my way


Outro:
 A                          D                A                         D                A
------------------------------------------------------------------------------------------|
------------------------------------------------------------------------------------------|
------9-9h11--------------------------------------9-9h11----------------------------------|
-9h11--------11--11h12p11/9-----7-7h9----7/9-9h11--------11-11h12p11/9-----7-7h9----7b9-7-|
----------------------------7h9-------9--------------------------------7h9-------9--------|
------------------------------------------------------------------------------------------|
Добавлено: 19.06.2012
Другие материалы по этой песне:
  • Аккорды и текст

Страница создана 20.05.2012
http://primanota.ru/vince-gill/if-i-had-my-way-chords.htm
Привет, Гость.
Предлагаем пройти революционный курс по гитаре.
Подарок от PrimaNota.Ru, забирай!