PrimaNota.ru - самый крупный в мире бесплатный архив песенных текстов, аккордов, табулатур и нот


Villebillies - Midnight - таба, видео

Регистрация Запомнить меня
Войти через:  Facebook Google Twitter Vk Yandex Mail.ru

Villebillies - Midnight - таба, видео

Печатать
Просмотров: 63
This is a singing-heavy song with a single riff, which repeats for the entire piece.



e|-----------------------------------------------------------------|
B|----2h4----------2----------2-------2h4----------2---------------|
G|-----------1--4-------1--4-----------------1--4------1--4--1-----|
D|-----------------------------------------------------------------|
A|-----------------------------------------------------------------|
E|-----------------------------------------------------------------|


A small modification, but an easier way to play it is this:

e|-----------------------------------------------------------------|
B|----2h4----------2----------2-------2h4----------2------0--------|
G|-----------1--4-------1--4-----------------1--4------1-----1-----|
D|-----------------------------------------------------------------|
A|-----------------------------------------------------------------|
E|-----------------------------------------------------------------|


There's also a solo in the middle:

e|-----------------------------------------------------------------|
B|--0-----------------0--------0-----------------------------------|
G|----1--1----------1---1--------1---1-----1----1------------------|
D|------4-------1h4----------------4--------1h4--------------------|
A|-----------------------------------------------------------------|
E|-----------------------------------------------------------------|


e|-----------------------------------------------------------------|
B|--0-----------------0--------0----------4--4--4--4---------------|
G|----1--1----------1---1--------1---1-----------------------------|
D|------4-------1h4----------------4-------------------------------|
A|-----------------------------------------------------------------|
E|-----------------------------------------------------------------|

This is the first villebilles tab on here, and I hope to see and submit more in the future.
If you have any questions or concerns, feel free to email me at keenjd0@gmail.com
Добавлено: 20.07.2015
Другие материалы по этой песне:
  • Аккорды и текст

Страница создана 20.07.2015
http://primanota.ru/villebillies/midnight-chords.htm
Привет, Гость.
Предлагаем пройти революционный курс по гитаре.
Подарок от PrimaNota.Ru, забирай!