PrimaNota.ru - самый крупный в мире бесплатный архив песенных текстов, аккордов, табулатур и нот


Villagers - Pieces - таба, видео

Регистрация Запомнить меня
Войти через:  Facebook Google Twitter Vk Yandex Mail.ru

Villagers - Pieces - таба, видео

Печатать
Просмотров: 76
Уроки эстрадного вокала в Санкт-Петербурге
-------------------------------------------------------------------------------
                             Pieces (Acoustic)- Villagers
-------------------------------------------------------------------------------
Tabbed by: blakeyboy90


This is a tab for the acoustic version of Pieces as shown in this video: 
https://www.youtube.com/watch?v=ins3IryV-NU#t=16

Tuning: Standard

     
     Intro
e|---------------------------------------------------------------------------|
B|-----3-----3-----3-----3-----3-----3-----3-----3---------------------------|
G|-----2-----2-----2-----2-----2-----2-----2-----2---------------------------|
D|--4-----0-----4-----0-----4-----0-----4-----0------------------------------|
A|---------------------------------------------------------------------------|
E|---------------------------------------------------------------------------|


     For a long, long, time...
e|---------------------------------------------------------------------------|
B|-----3-----3-----3-----3-----3-----3-----3-----3---------------------------|
G|-----4-----4-----4-----4-----4-----4-----4-----4---------------------------|
D|--4-----0-----4-----0-----4-----0-----4-----0------------------------------|
A|---------------------------------------------------------------------------|
E|---------------------------------------------------------------------------|

    I've been in pieces...
e|---------------------------------------------------------------------------|
B|-----3-----3-----3-----3-----3-----3-----3-----3---------------------------|
G|-----2-----2-----2-----2-----2-----2-----2-----2---------------------------|
D|--4-----0-----4-----0-----4-----0-----4-----0------------------------------|
A|---------------------------------------------------------------------------|
E|---------------------------------------------------------------------------|

     In the corner of a room                                    
e|---------------------------------------------------------------------------|
B|-----3-----3-----3-----3-----3-----3-----3-----3---------------------------|
G|-----4-----4-----4-----4-----4-----4-----4-----4---------------------------|
D|--4-----0-----4-----0-----4-----0-----4-----0------------------------------|
A|---------------------------------------------------------------------------|
E|---------------------------------------------------------------------------|

    In an endless afternoon
e|---------------------------------------------------------------------------|
B|-----5-----5-----5-----5-----5-----5-----5-----5---------------------------|
G|-----4-----4-----4-----4-----4-----4-----4-----4---------------------------|
D|--6-----0-----6-----0-----6-----0-----6-----0------------------------------|
A|---------------------------------------------------------------------------|
E|---------------------------------------------------------------------------|

     For a long, long, time...
e|---------------------------------------------------------------------------|
B|-----3-----3-----3-----3-----3-----3-----3-----3---------------------------|
G|-----2-----2-----2-----2-----2-----2-----2-----2---------------------------|
D|--4-----0-----4-----0-----4-----0-----4-----0------------------------------|
A|---------------------------------------------------------------------------|
E|---------------------------------------------------------------------------|

e|---------------------------------------------------------------------------|
B|-----0-----0-----0-----0-----0-----0-----0-----0---------------------------|
G|-----0-----0-----0-----0-----0-----0-----0-----0---------------------------|
D|--4-----0-----4-----0-----4-----0-----4-----0------------------------------|
A|---------------------------------------------------------------------------|
E|---------------------------------------------------------------------------|

     I've been in pieces....
e|---------------------------------------------------------------------------|
B|-----3-----3-----3-----3-----3-----3-----3-----3---------------------------|
G|-----2-----2-----2-----2-----2-----2-----2-----2---------------------------|
D|--4-----0-----4-----0-----4-----0-----4-----0------------------------------|
A|---------------------------------------------------------------------------|
E|---------------------------------------------------------------------------|

Repeat till end

Добавлено: 20.12.2015
Другие материалы по этой песне:
  • Аккорды и текст

Страница создана 20.12.2015
http://primanota.ru/villagers/pieces-chords.htm
Привет, Гость.
Предлагаем пройти революционный курс по гитаре.
Подарок от PrimaNota.Ru, забирай!