PrimaNota.ru - самый крупный в мире бесплатный архив песенных текстов, аккордов, табулатур и нот


Villagers - Down Under The Sea - аккорды и текст, видео

Регистрация Запомнить меня
Войти через:  Facebook Google Twitter Vk Yandex Mail.ru

Villagers - Down Under The Sea - аккорды и текст, видео

Печатать
Просмотров: 92
Уроки эстрадного вокала в Санкт-Петербурге
Down Under The Sea
Villagers
-------------------------------------------------------------------------------
                             DOWN UNDER THE SEA - Villagers
-------------------------------------------------------------------------------

Tuning: EADGBe

This is what the piano plays through parts of the song and can be played over the vocals in some parts.

e|---------------------------------------------------------------------------|
B|---------------------------------------------------------------------------|
G|---------------------------------------------------------------------------|
D|---6----4--6--7----6----4--6--2----4---2-----------------------------------|
A|---7----6--7--9----7----6--7--4----4---0-----------------------------------|
E|---------------------------------------------------------------------------|

Chords:

e|---------------------------------------------------------------------------|
B|---------------------------------------------------------------------------|
G|-----------6-------4-----2-----1----2------2-------------------------------|
D|---6-------6-------4-----2-----2----4------3-------------------------------|
A|---7-------4-------2-----0-----2----4------3-------------------------------|
E|---0------(0)-----(0)----0-----0----2------1-------------------------------|

     E     C#m/E    B/E    A    E    F#m    F


Intro: E

E
There is movement beneath me
But there's no sound
Bound by these feelings

       C#m/E   B/E       A
Buried down,   under the sea

         E
When you dream of the deepest
Underground
I'll see yours and raise you

         C#m/E  B/E       A
Take you down,  under the sea

Riff:

e|---------------------------------------------------------------------------|
B|---------------------------------------------------------------------------|
G|---------------------------------------------------------------------------|
D|---------------------------------------------------------------------------|
A|----------0---3---5---7~----8--7--3~----5--3--0~-----1--0------------------|
E|--0-0-3-3--------------------------------------------------0~--------------|
                             Follow me                There is move....

E
Bodies touched in the shadows of the archway
But we never got the chance to shut the
Eyes in the back of our head
But the fear was fuel for the fire
Holding on to glimpses of what lay

C#m/E   B/E        A
Down,   under the sea

(play the riff here)

E
In the beginning we held on so tightly
In the beginning we loosened our grip
As the curtains was starting to rise
Had to fight to learn how to surrender
To the ageless angels

C#m/E   B/E       A
Down,   under the sea

C#m/E   B/E       A
Down,   under the sea

C#m/E   B/E       A
Down,   under the sea

C#m/E   B/E       A
Down,   under the sea

          F#m   F    E
Under the sea
Добавлено: 20.11.2015
Другие материалы по этой песне:
  • Аккорды и текст

Страница создана 20.11.2015
http://primanota.ru/villagers/down-under-sea-chords.htm
Привет, Гость.
Предлагаем пройти революционный курс по гитаре.
Подарок от PrimaNota.Ru, забирай!