PrimaNota.ru - самый крупный в мире бесплатный архив песенных текстов, аккордов, табулатур и нот


Vili Vesterinen - Säkkijärven Polkka - таба, видео

Регистрация Запомнить меня
Войти через:  Facebook Google Twitter Vk Yandex Mail.ru

Vili Vesterinen - Säkkijärven Polkka - таба, видео

Печатать
Просмотров: 142
Уроки эстрадного вокала в Санкт-Петербурге
D#|-------------|-----------------------------------------------|--------------------------------------------|
A#|----------12-|-13--------------------------------------------|--------------------------------------------|
F#|-12-13-14----|-----12-13-12----------------------------------|-----------------------------------------12-|
C#|-------------|--------------15--13--13-15-13-12--12----------|-17--15-17-15---------13-12-----------13----|
G#|-------------|-----------------------------------------14-17-|--------------18--17--------15--14-15-------|
D#|-------------|--------------------------------------15-------|--------------------------------------------|

D#|-----------------------------------------------|--------------------------------|
A#|-13--------------------------------------------|---------------------------13---|
F#|-----12-13-12----------------------------------|---------------------------12---|
C#|--------------15--13--13-15-13-12--12----------|-17--15-17-15--------------13---|
G#|-----------------------------------------14-17-|--------------18--17--15--------|
D#|--------------------------------------15-------|--------------------------------|

D#|--------------------------------------------|--------------------------------------------|
A#|-----------------13--13-15-13-12--12-13-15--|----------13-15--16--15-16-15---------------|
F#|-------------12-----------------------------|-12-14-16---------------------17--17-16-17--|
C#|----12-13-15--------------------------------|--------------------------------------------|
G#|-15-----------------------------------------|--------------------------------------------|
D#|--------------------------------------------|--------------------------------------------|

D#|--------------------------------------------|-------------------------------------|
A#|-----------------13--13-15-13-12--12-13-15--|--------------------12--13---13------|
F#|-------------12-----------------------------|-12-13-12----12-14-----------12------|
C#|----12-13-15--------------------------------|----------16-----------------13------|
G#|-15-----------------------------------------|-------------------------------------|
D#|--------------------------------------------|-------------------------------------|

D#|------------------------------------------------|------------------------------------------------|
A#|----------------------12-13-15-13-12--12-13-15--|----------13-15-14-15-16-15-16-15---------------|
F#|-------------12-13-14---------------------------|-12-14-16-------------------------17--17-16-17--|
C#|----12-13-15------------------------------------|------------------------------------------------|
G#|-15---------------------------------------------|------------------------------------------------|
D#|------------------------------------------------|------------------------------------------------|

D#|------------------------------------------------|---------------------------------------------|
A#|----------------------12-13-15-13-12--12-13-15--|--------------------12--13------13-----------|
F#|-------------12-13-14---------------------------|-12-13-12----12-14--------------12-----------|
C#|----12-13-15------------------------------------|----------16----------------13--13-----------|
G#|-15---------------------------------------------|------------------------------------------2--|
D#|------------------------------------------------|------------------------------------3--4-----|

D#|-------------------------------------------------|-------------------------------------------------|
A#|-------------------------------------------------|-------------------------------------------------|
F#|----------------------------------0--1--0-----1--|-------------------------------------------------|
C#|----------0--1--0--1--2--3--2--3-----------3-----|-5-----------5--3--1-----1-----------------------|
G#|-3--2--3-----------------------------------------|-------2--5-----------5-----5--3--2--3--------2--|
D#|-------------------------------------------------|----3-----------------------------------3--5-----|

D#|-------------------------------------------------|--------------------------------------------------|
A#|-------------------------------------------------|--------------------------------------------------|
F#|----------------------------------0--1--0-----1--|-------------------------------------5------------|
C#|----------0--1--0--1--2--3--2--3-----------3-----|-5-----------5--3--1--------------5--5---------9--|
G#|-3--2--3-----------------------------------------|-------2--5-----------5--3--5--6-----6---10-11----|
D#|-------------------------------------------------|----3---------------------------------------------|

D#|-------------------------------------------------|-------------------------------------------------|
A#|-------------------------------------9--------9--|-------------------------------------------------|
F#|----------7--8--7--8--9--10-9--10-12----12-10----|-12----------12-10-8-----8-----------------------|
C#|-10-9--10----------------------------------------|-------9--12----------12----12-10-9--10-------9--|
G#|-------------------------------------------------|----10----------------------------------10-12----|
D#|-------------------------------------------------|-------------------------------------------------|

D#|-------------------------------------------------|-----------------------------------------------|
A#|-------------------------------------9--------9--|-------------------------------------13--------|
F#|----------7--8--7--8--9--10-9--10-12----12-10----|-12----------12-10-8--------------12-12--------|
C#|-10-9--10----------------------------------------|-------9--12----------12-10-12-13----13--8--9--|
G#|-------------------------------------------------|----10-----------------------------------------|
D#|-------------------------------------------------|-----------------------------------------------|

D#|-----------------------------------------------|------------------------------------------------|
A#|-----------------------------------------------|------------------------------------------------|
F#|-----------------------------------------------|------------------------------------------------|
C#|-10--10-------------8--10-11-10-------------8--|-10-11-10-9--10-11--10--8--10-8-----------------|
G#|--------11-8--10-11-------------11-8--10-11----|---------------------------------11-10-9--10-11-|
D#|-----------------------------------------------|------------------------------------------------|

D#|-------------------------------------------|------------------------------------------------|
A#|-------------------------------------------|------------------------------------------------|
F#|-------------------------------------------|------------------------------------------------|
C#|-8---8-----------------8---8---------------|-8--10-8--7--8--10--8---------------------------|
G#|--------11-10-9--10-11--------11-10-9--7---|------------------------11-13-11-10----10-11-13-|
D#|-------------------------------------------|------------------------------------13----------|

D#|-----------------------------------------------|----------------------------------------------|
A#|-----------------------------------------------|----------------------------------------------|
F#|-----------------------------------------------|----------------------------------------------|
C#|-----------------------------------------------|----------------15--13--11-13-11--------------|
G#|-15--15-------------13-15-16-15-------------13-|-15-16-15-14-15------------------15-13--13-15-|
D#|--------16-13-15-16-------------16-13-15-16----|----------------------------------------------|

D#|----------------------------------------------|-----------------------------------------------|
A#|----------------------------------------------|-------------------------------------18--------|
F#|----------------------------------------------|-------------------------------------17--15-16-|
C#|-11--11-13-11-10--8---------------------------|-------------------------------------18--------|
G#|----------------------11-13-11----------11----|----11----------------------------15-----------|
D#|-------------------------------15-13-13----13-|-15----15-13-12-13-15-12-13-15-16--------------|

D#|-----------------------------------------------|------------------------------------------------|
A#|-----------------------------------------------|------------------------------------------------|
F#|-17--17-------------15-17-18-17-------------15-|-17-18-17-16-17-18--17--15-17-15----------------|
C#|--------18-15-17-18-------------18-15-17-18----|---------------------------------18-17-16-17-18-|
G#|-----------------------------------------------|------------------------------------------------|
D#|-----------------------------------------------|------------------------------------------------|

D#|-------------------------------------------|------------------------------------------------|
A#|-------------------------------------------|------------------------------------------------|
F#|-15--15----------------15--15--------------|-15-17-15-14-15-17--15--13-15-13----------13-15-|
C#|--------18-17-16-17-18--------18-17-16-14--|---------------------------------17-15-17-------|
G#|-------------------------------------------|------------------------------------------------|
D#|-------------------------------------------|------------------------------------------------|

D#|-----------------------------------------------|----------------------------------------------|
A#|-----------------------------------------------|----------------18--16--14-16-14--------------|
F#|-17--17-------------15-17-18-17-------------15-|-17-18-17-16-17------------------17-15--15-17-|
C#|--------18-15-17-18-------------18-15-17-18----|----------------------------------------------|
G#|-----------------------------------------------|----------------------------------------------|
D#|-----------------------------------------------|----------------------------------------------|

D#|----------------------------------------------|-------------------------------------13---|
A#|-14--14-16-14---------------------------------|-------------------------------------13---|
F#|--------------17--15--13-15-13----------13----|----13-------------------------13-17-13---|
C#|-------------------------------17-15-17----15-|-17----17-15-14-15-17-14-15-17------------|
G#|----------------------------------------------|------------------------------------------|
D#|----------------------------------------------|------------------------------------------|
Добавлено: 22.06.2016
Другие материалы по этой песне:
  • Аккорды и текст

Страница создана 22.06.2016
http://primanota.ru/vili-vesterinen/sakkijarven-polkka-chords.htm
Привет, Гость.
Предлагаем пройти революционный курс по гитаре.
Подарок от PrimaNota.Ru, забирай!