PrimaNota.ru - самый крупный в мире бесплатный архив песенных текстов, аккордов, табулатур и нот


Vile - The New Age Of Chaos - таба, видео

Регистрация Запомнить меня
Войти через:  Facebook Google Twitter Vk Yandex Mail.ru

Vile - The New Age Of Chaos - таба, видео

Печатать
Просмотров: 76
Band: Vile
Album: The New Age of Chaos
Song: The New Age of Chaos

Copyright (c) Listenable Records, 2005
Version 1.0, 5/1/2006, 6/1/2006

Transcribed By: Andrew Collyer
Contact: immortalshadow666@gmail.com

And also corrected (official tab) by Mr. Colin Davis himself!

Suffixes for bend:
fb - full bend       hb - half bend
qb - quarter bend    t - tap bend
^ - Hold bend        r - release bend
~ - vibrato bend

Suffixes for harmonic:
ph - pinched harmonic      nh – natural harmonic
ah – artificial harmonic   hh – harp harmonic

Suffixes for mute:
. – palm mute            x – staccato mute
, - light palm mute      ; - heavy palm mute

Other:
/ - slide up to            \ - slide down to
h - hammer on              p - pull off
‘ - sustained note         * - see comment
" - tremolo note           <> - Trill
L – left channel only      R – right channel only
= - 12 string guitar part

Tuning Bb Eb Ab Db F Bb

Riff 1a (0:00) play twice
|--------------------------------------------------------------------------|
|--------------------------------------------------------------------------|
|--------------------------------------------------------------------------|
|---9"-10"-7"-9"-----7"----------------------------------11"-12"---11"-12"-|
|----------------10"----9"-10"-7"-9"-----7"--------------------------------|
|-7----------------------------------10"----9"-10"-7"-9----------9---------|
  .                                                   .          .
-------------------------------------|
-------------------------------------|
----------------------------11"-10"--|
-9"-11"---11"-12"---11"-12"----------|
-------------------------------------|
--------9---------9------------------|
        .         .
Riff 1b (0:18)
|--------------------------------------------------------------------------|
|--------------------------------------------------------------------------|
|-----------------12"-9"-11"---------------------12"-9"-11"----------------|
|---9"-10"-9"-10"------------12"---9"-10"-9"-10"---------------9"-10"-9"---|
|--------------------------------------------------------------------------|
|-7------------------------------7---------------------------7-------------|
  .                              .                           .
---------------------|
---------------------|
-----12"-9"-11"------|
-10"------------12"--|
---------------------|
---------------------|

Riff 1c (0:25)
|-------------------------------------------------------|
|-------------------------------------------------------|
|-------------------------------------------------------|
|---9"-10"-7"-9"-----7"---------------------------------|
|----------------10"----9"-10"-7"-9"-----7"-------------|
|-7----------------------------------10"----9"-10"-7"-9-|
  .                                                   .

Riff 2a (0:30) play twice
|------------------------------------------------------------------|
|------------------------------------------------------------------|
|-12-------------------------12-11-12-15"------------141414--------|
|-9--------------------------9--8--9--12"------111111------111111--|
|-7--------------------------7--6--7--10"---999--------------------|
|----0-0-0-0-0-0-0-0-0-0-0-0---------------------------------------|
     . . . . . . . . . . . .

Riff 2b (0:34)
|-----------------------------------------------------------------------|
|-----------------------------------------------------------------------|
|-12-------------------------12-11-12-----------------------------------|
|-9--------------------------9--8--9--13----------------------121212----|
|-7--------------------------7--6--7--10-------------------999------999-|
|----0-0-0-0-0-0-0-0-0-0-0-0----------8---0-0-0-0-0-0-0-777-------------|
     . . . . . . . . . . . .              . . . . . . .

Riff 2a x 1 (0:39)
Riff 2b x 1 (0:43)
Riff 1a x 1 (0:48)
Riff 1b x 1 (1:06)
Riff 1c x 1 (1:13)
Riff 2a x 1 (1:18)
Riff 2b x 1 (1:22)
Riff 2a x 1 (1:27)
Riff 2b x 1 (1:31)

Riff 3 (1:36)
|-----------------------------------------------------------------------|
|-----------------------------------------------------------------------|
|-----------------------------------------------------------------------|
|------111111--------121212------------151515-----------121212----------|
|---888------888--999------999---121212------121212--999------999---888-|
|-6-------------7-------------10-------------------7-------------6------|
  .             .             .                    .             .
----------------------------------------------------|
----------------------------------------------------|
----------------------------------------------------|
-111111---------121212---------777---------777------|
-------888---999------999---444---444---444---444---|
----------7--------------2-----------2--------------|
          .              .           .

Riff 4a (1:45) play twice
|-------------------------------------------------------------------|
|-------------------------------------------------------------------|
|-------------------------------------------------------------------|
|-------------------------------------------------------------------|
|-7-8-5-7---10-----------------------------2-------2-------2--------|
|---------8----7-8-0-2-3-5-7-8-5-7-7-0-0-0-0-0-0-0-0-0-0-0-0-0-0-0--|
  . . . . . .  . . . . . . . . . .   . . .   . . .   . . .   . . .

Riff 4b (1:49) play twice
|-------------------------------------------------------------------|
|-------------------------------------------------------------------|
|-------------------------------------------------------------------|
|-------------------------------------------------------------------|
|-7-8-5-7---10---------------------9-------9-------5-------5--------|
|---------8----7-8-0-2-3-5-7-8-5-7-7-7-7-7-7-7-7-7-3-3-3-3-3-3-3-3--|
  . . . . . .  . . . . . . . . . .   . . .   . . .   . . .   . . .

Riff 4a x 1 (1:54)
Riff 4b x 1 (1:59)
Riff 4a x 1 (2:04)
Riff 4b x 1 (2:08)

Riff 5a (2:13)
|--------------------------------------|
|-----------------------------------6--|
|--------------------------------------|
|-----------------------------------3--| gtr 1
|-2/3\2-------------2/3\2-10"--12"-----|
|-0/1\0-------------0/1\0--------------|

|--------------------------------------|
|-----------------------------------6--|
|--------------------------------------|
|---------------10"-----------------3--| gtr 2
|-2/3\2-7"----------2/3\2--------------|
|-0/1\0-------------0/1\0--------------|

Riff 5b (2:18)
|--------------------------------------|
|--------------------------------------|
|-----------------------------------7--|
|--------------------------------------| gtr 1
|-2/3\2-------------2/3\2-10"--12"--5--|
|-0/1\0-------------0/1\0--------------|

|--------------------------------------|
|--------------------------------------|
|-----------------------------------7--|
|---------------10"--------------------| gtr 2
|-2/3\2-7"----------2/3\2-----------5--|
|-0/1\0-------------0/1\0--------------|

Riff 5a x 1 (2:22)
Riff 5b x 1 (2:27)
Riff 4a x 1 (2:31)
Riff 4b x 1 (2:36)
Riff 4a x 1 (2:41)
Riff 4b x 1 (2:45)
Riff 4a x 1 (2:50)
Riff 4b x 1 (2:55)


Riff 6a (3:00)
|----------------------------------------------------------------|
|----------------------------------------------------------------|
|----------------------------------------------------------------|
|-----------------7-8----7---10-----------4-------5-----4-----5--|
|-5-6---5-------------10---8----7-8-----3-------3-----3-----3----|
|-----8---6-8-5-6-------------------0-2-----0-2-----2-----2------|
  . . . . . . . .                   . . .   . . .   . .   . .

Riff 6b (3:05)
|---------------------------------------------------------------------------|
|---------------------------------------------------------------------------|
|-----------------------------------9-9-9-10-10-9-9-10-10-14-14-14-13-13-13-|
|-----------------7-8----7---10---------------------------------------------|
|-5-6---5-------------10---8----7-8-7-7-7-8--8--7-7-8--8--12-12-12-11-11-11-|
|-----8---6-8-5-6-----------------------------------------------------------|
  . . . . . . . .

Riff 6a x 1 (3:10)

End (3:15)
|----------------------------------------------------------------------|
|------------------------------------------------------------------12--|
|-----------------------------------9-9-9-10-10-9-9-10-10-14-14-14-13--|
|-----------------7-8----7---10----------------------------------------|
|-5-6---5-------------10---8----7-8-7-7-7-8--8--7-7-8--8--12-12-12-11--|
|-----8---6-8-5-6------------------------------------------------------|
Добавлено: 06.09.2013
Другие материалы по этой песне:
  • Аккорды и текст

Страница создана 16.08.2013
http://primanota.ru/vile/the-new-age-of-chaos-chords.htm
Привет, Гость.
Предлагаем пройти революционный курс по гитаре.
Подарок от PrimaNota.Ru, забирай!