PrimaNota.ru - самый крупный в мире бесплатный архив песенных текстов, аккордов, табулатур и нот


Vile - Suicide Warfare - таба, видео

Регистрация Запомнить меня
Войти через:  Facebook Google Twitter Vk Yandex Mail.ru

Vile - Suicide Warfare - таба, видео

Печатать
Просмотров: 89
Band: Vile
Album: The New Age of Chaos
Song: Suicide Warfare

 
Code:
Suffixes for bend:
fb - full bend       hb - half bend
qb - quarter bend    t - tap bend
^ - Hold bend        r - release bend
~ - vibrato bend

Suffixes for harmonic:
ph - pinched harmonic      nh – natural harmonic
ah – artificial harmonic   hh – harp harmonic

Suffixes for mute:
. – palm mute            x – staccato mute
, - light palm mute      ; - heavy palm mute

Other:
/ - slide up to            \ - slide down to       
h - hammer on              p - pull off
‘ - sustained note         * - see comment
" - tremolo note           <> - Trill
L – left channel only      R – right channel only
= - 12 string guitar part

Tuning A# D# G# C# F A#

Riff 1a (0:00)
|-------------------------------------------------------------|
|-------------------------------------------------------------|
|-------------------------------------------------------4"-3"-|
|-------4444443h433333333-------------4444443h455555555-------|
|-------------------------4"-5"-------------------------------|
|-0"-2"-------------------------0"-2"-------------------------|

Riff 1b (0:08)
|-------------------------------------------------------------|
|-------------------------------------------------------------|
|-------------------------------------------------------------|
|-------4444443h433333333-------------4444443h455555555-------|
|-------------------------4"-5"-------------------------6"-5"-|
|-0"-2"-------------------------0"-2"-------------------------|

Riff 1a x 1 (0:15)
Riff 1b x 1 (0:22)

Riff 2 (0:29)
|-------------------------------------------------------------------|
|-------------------------------------------------------------------|
|-12-------------------13-12-13-16"---12-------13-12-13-11--11--11"-|
|-9--------------------10-9--10-13"---9--------10-9--10-8---8---8"--|
|-7--------------------8--7--8--11"---7--------8--7--8--6---6---6"--|
|---000000000000000000------------------000000----------------------|
    ..................                  ......

Riff 1a x 1 (0:43)
Riff 1b x 1 (0:50)
Riff 2 x 1 (0:57)

Riff 3a (1:11)
|------------------------------------------------------------------|
|------------------------------------------------------------------|
|------------------------------------------------------------------|
|------------------------------------------------------------------|
|------------------------------------------------------------------|
|-0-2-------------0-2-------------0-2------------0-2-3-------------|

Riff 3b (1:20)
                [x3]
|------------------|----------------------|
|------------------|----------------------|
|------------------|----------------------|
|------------------|----------------------|
|------------------|----------------------|
|-0-2--------------|-0-2------------------|

|------------------|----------------------|
|------------------|----------------------|
|------------------|----------------------|
|------------------|----------------------|
|------------------|----------------------|
|-0-2-3-2-0-2-3-1--|-0-2-3-2-0-2-0-1///---|

Riff 4a (1:30)
|------------------------------------------------------------|
|------------------------------------------------------------|
|----------------12--12--12"------------------11--11--11"----|
|----------------9---9---9"----------------5--8---8---8"-----|
|----------7-----7---7---7"-------------3-----6---6---6"-----|
|-000-000-----0----------------000-000-----------------------|
  ... ...                      ... ...

Riff 4b (1:35)
|------------------------------------------------------------|
|------------------------------------------------------------|
|----------------12--12--12"---------------8--16--16--16"----|
|----------------9---9---9"-------------6-----13--13--13"----|
|----------7-----7---7---7"-------------------11--11--11"----|
|-000-000-----0----------------000-000-----------------------|
  ... ...                      ... ...

Riff 4a x 1 (1:39)
Riff 4b x 1 (1:44)

Solo begins at (1:49)

Riff 3a x 1 (1:49)
Riff 3b x 1 (1:58)

Solo ends at (2:08)

Riff 4a x 1 (2:08)
Riff 4b x 1 (2:13)
Riff 4a x 1 (2:17)

Riff 4c (2:22)
                                                           [x3]
|----------------------------------------------------|--------|
|---------------------------------------------12"----|--------|
|----------------12--12--12"---------------8------8"-|----8"--|
|----------------9---9---9"-------------6------------|-6"-----|
|----------7-----7---7---7"--------------------------|--------|
|-000-000-----0----------------000-000---------------|--------|
  ... ...                      ... ...

Solo begins at (2:29)

Riff 5 (2:29) play twice
|----------------------------------------|
|----------------------------------------|
|----------------------------------------|
|-------------------------------4"-------|
|----------------2"-1"-------------------|
|-0"-2"----0"-2"-------0"-2"-3"----1"----|

Solo ends at (2:43)

Riff 2 x 1 (2:43)

Riff 6 (2:56) play till end
|-----------------------------------------------------------------|
|-----------------------------------------------------------------|
|-----------------------------------------------------------------|
|-----------------------------------------------------------------|
|-----------------------7-6-6---------------------2-3-------------|
|-12\-000-000-000-7-6-7-------6-7-12\-000-000-000-----3-4-3-4-3-5-|
      ... ... ... . . .   .   . .     ... ... ... . . . . . . . .



Written for www.riversofgore.com. Do not re-post this tablature
without the consent of the two respective parties (Author and
webmaster).
Добавлено: 30.11.2013
Другие материалы по этой песне:
  • Аккорды и текст

Страница создана 04.06.2013
http://primanota.ru/vile/suicide-warfare-chords.htm
Привет, Гость.
Предлагаем пройти революционный курс по гитаре.
Подарок от PrimaNota.Ru, забирай!