PrimaNota.ru - самый крупный в мире бесплатный архив песенных текстов, аккордов, табулатур и нот


Vile - Retaliation - текст песни, таба, видео

Регистрация Запомнить меня
Войти через:  Facebook Google Twitter Vk Yandex Mail.ru

Vile - Retaliation - текст песни, таба, видео

Печатать
Просмотров: 150
Уроки эстрадного вокала в Санкт-Петербурге
Band: Vile
Album: Depopulate
Song: Retaliation


Suffixes for bend:
fb - full bend       hb - half bend
qb - quarter bend    t - tap bend
^ - Hold bend        r - release bend
~ - vibrato bend

Suffixes for harmonic:
ph - pinched harmonic      nh – natural harmonic
ah – artificial harmonic   hh – harp harmonic

Suffixes for mute:
. – palm mute            x – staccato mute
, - light palm mute      ; - heavy palm mute

Other:
/ - slide up to            \ - slide down to
h - hammer on              p - pull off
‘ - sustained note         * - see comment
" - tremolo note           <> - Trill
L – left channel only      R – right channel only
= - 12 string guitar part

Tuning Bb Eb Ab Db F Bb

Riff 1 (0:00) play 4 times
                                         [x2]                  [x1]
|-------------------------------------------|---------------------|
|-------------------------------------------|----10"----------10"-|
|----4"----4"----4"----------------------7"-|-6"--------7"-6"-----|
|-2"----5"----4"-------4"----5"----4"-4"----|--------4"-----------|
|-------------------4"----2"----3"----------|---------------------|
|-------------------------------------------|---------------------|

Fill 1 (0:18)
|--------------------|
|--------------------|
|--------------------|
|----8"--------------|
|-5"-------9"----8"--|
|-------6"----5"-----|


Riff 1 x 1 (0:20)
Fill 1 x 1 (0:38)

Riff 2 (0:40) play 3 times
|-------------------------------------------6"-----|
|------------------------------------4"--------7"--|
|---------------------------------------3"---------|
|----------5"----------------5"--------------------|
|-2-----2"----------2-----2"-----------------------|
|-0--5"-------------0--5"--------------------------|
  .                 .

Riff 1 x 1 (0:58)
Fill 1 x 1 (1:16)

Riff 3 (1:19) play twice
|---------------------------------------------------------------------------|
|---------------------------------------------------------------------------|
|---------------------------------------------------------------------------|
|-----10-----10-----9-----9-----10-----10------13------13-----10-----10-----|
|---7------7------6-----6-----7------7------10------10------7------7------6-|
|-5------5------4-----4-----5------5------8-------8-------5------5------4---|
  . .    . .    . .   . .   . .    . .    . .     . .     . .    . .    . .

---------------------------------|
---------------------------------|
---------------------------------|
-9-----9-----7-----7-----7-----7-|
-----6-----4-----4-----4-----4---|
---4-----2-----2-----2-----2-----|
   . .   . .   . .   . .   . .

Riff 4 (1:35)
|--------------------------------------|
|--------------------------------------|
|--------------------------------------|
|-------10----------9-------------7----|
|----7-----------6-------------4-------|
|-5-----------4----------0--2----------|
              .          .  .

Riff 4 (1:43) play 5 times
|--------------------------------------------------|
|-------------------------------------------4"-----|
|-5"----5"----5"----5"-6"--------------------------|
|-------------------------7"--5"-7"------------7"--|
|----3"----3"----3"-----------------8"-------------|
|--------------------------------------5"----------|

Solo begins (1:48)
Solo ends (1:59)

Riff 1 x 1 (2:05)
Fill 1 x 1 (2:24)
Riff 3 x 2 (2:26)
End
Добавлено: 28.10.2013
Другие материалы по этой песне:

Страница создана 25.07.2012
http://primanota.ru/vile/retaliation-chords.htm
Привет, Гость.
Предлагаем пройти революционный курс по гитаре.
Подарок от PrimaNota.Ru, забирай!