PrimaNota.ru - самый крупный в мире бесплатный архив песенных текстов, аккордов, табулатур и нот


Vile - Devour - таба, видео

Регистрация Запомнить меня
Войти через:  Facebook Google Twitter Vk Yandex Mail.ru

Vile - Devour - таба, видео

Печатать
Просмотров: 78
Band: Vile
Album: The New Age of Chaos
Song: Devour


Suffixes for bend:
fb - full bend       hb - half bend
qb - quarter bend    t - tap bend
^ - Hold bend        r - release bend
~ - vibrato bend

Suffixes for harmonic:
ph - pinched harmonic      nh – natural harmonic
ah – artificial harmonic   hh – harp harmonic

Suffixes for mute:
. – palm mute            x – staccato mute
, - light palm mute      ; - heavy palm mute

Other:
/ - slide up to            \ - slide down to
h - hammer on              p - pull off
‘ - sustained note         * - see comment
" - tremolo note           <> - Trill
L – left channel only      R – right channel only
= - 12 string guitar part

Tuning Bb Eb Ab Db F Bb

Intro (0:02)
|--------------------------------------------------------|
|--------------------------------------------------------|
|----4"-3"-4"-----4"3"-------4"-3"-4"--------------------|
|-------------5"-------4"-------------5"-4"-2"-4"--------| gtr 1
|-2-----------------------2"----------------------2"-----|
|-0--------------------------------------------------5"--|

|--------------------------------------------------------|
|--------------------------------------------------------|
|--------------------------------------------------------|
|--------------------------------------------------------| gtr 2
|-2------------------------------------------------------|
|-0------------------------------------------------------|
  x

Riff 1a (0:09)
|-------------------------------------------------|
|-------------------------------------------------|
|-------------12-12-12-12-11-11-11-11-11-11-11-11-|
|-------------9--9--9--9--8--8--8--8--8--8--8--8--|
|-2--2--2--2--7--7--7--7--6--6--6--6--6--6--6--6--|
|-0--0--0--0--------------------------------------|

Riff 1b (0:13)
|-----------------------------------------|
|-----------------------------------------|
|-------------12-12-12-12-11-11-11-11-11--|
|-------------9--9--9--9--8--8--8--8--8---|
|-2--2--2--2--7--7--7--7--6--6--6--6--6---|
|-0--0--0--0------------------------------|

Riff 2 (0:17)
|----------------------------------------------------------------------------|
|----------------------------------------------------------------------------|
|----------------------------------------------------------------------------|
|---7"---7"---7"---7"---8"---8"---8"---8"---7"---7"---7"---7"-8"-7"----7"-6"-|
|-0----0----0----0----0----0----0----0----0----0----0----0----------8"-------|
|----------------------------------------------------------------------------|
  .    .    .    .    .    .    .    .    .    .    .    .

------------|
------------|
------------|
------------|
-7"--3"-----|
--------5"--|

Riff 3 (0:26) play twice
|-------------------------------------------------------------------------|
|-------------------------------------------------------------------------|
|-------------------------4"-3"-------------------------------------------|
|---4"----4"----5"----5"-----------4"----4"----4"-5"-4"----4"-3"----------|
|-------------------------------------------------------5"-------4"-------|
|-0-----2-----2-----2------------0-----2-----2----------------------5"-4"-|
        .     .     .            .     .     .

Riff 4 (0:42) play twice
|--------------------------------------------------|
|--------------------------------------------------|
|--------------------------------------------------|
|----------------------------2"-1"----2"-1"--------|
|----------2"-1"-------------------3"-------2"-3"--|
|-0"-2"-3"-------2"-3"-0"-2"-----------------------|

Riff 1a x 2 (0:50)
Riff 2 x 1 (0:59)
Riff 4 x 1 (1:07)

Riff 5 (1:16) play twice
|--------------------------------------------------------|
|--------------------------------------------------------|
|-----------------12\11/12------------------------6\5/6--|
|-----------------9-\8/-9---------5\4/5-----8\7/8--------|
|---7\6/7---------7-\6/-7--------------------------------|
|-0-------0-0-0-0---------0-0-0-0-------0-0--------------|
  .       . . . .         . . . .       . .

Riff 1a x 1 (1:24)
Riff 1b x 1 (1:28)

Riff 6a (1:32)
|-----------------------------------------------|
|-----------------------------------------------|
|-----------------------------------------------|
|-------------------------6"-5"-2"-5"-----------| gtr 1
|----------2"-1"----------------------6"-5"-4"--|
|-0"-2"-3"--------4"-3"-------------------------|

Riff 6b (1:32)
|-----------------------------------------------|
|-----------------------------------------------|
|-----------------------------------------------|
|-------------------------9"-8"-5"-8"-4"--------| gtr 2
|----------2"-1"-------------------------8"-7"--|
|-0"-2"-3"--------4"-3"-------------------------|

Riff 4 x 1/2 (1:41)

End (1:45) play twice
|---------------------------------------|
|---------------------------------------|
|---------------------------------------|
|----------------------------2"-1"------|
|----------2"-1"-------------------3"---|
|-0"-2"-3"-------2"-3"-0"-2"----------0-|

End.
Добавлено: 15.07.2013
Другие материалы по этой песне:

Страница создана 26.03.2012
http://primanota.ru/vile/devour-chords.htm
Привет, Гость.
Предлагаем пройти революционный курс по гитаре.
Подарок от PrimaNota.Ru, забирай!