PrimaNota.ru - самый крупный в мире бесплатный архив песенных текстов, аккордов, табулатур и нот


Vile - Deafening Silence - таба, видео

Регистрация Запомнить меня
Войти через:  Facebook Google Twitter Vk Yandex Mail.ru

Vile - Deafening Silence - таба, видео

Печатать
Просмотров: 107
:::: http://www.vilestench.com/ :::::

From album: "The New Age Of Chaos"

                            TABULATURE LEGEND:
                   " - tremolo             h - hammer on
                   ~ - vibrato              - slide down
                   p - pull off            / - slide down
                  tr - tremolo picking     ^ - pinch harmonics
                   = - sustained note      b - bend string
                p.m. - palm muting         t - tapping

TUNING: Bb [Bb, Eb, Ab, db, gb, Bb]

[Riff 1 (x3)]
||-----------------------------------------------|-------------------------|
||o----------------------------------------------|-------------------------|
||--9-------------------------------------------|-98/9---------------------|
||-----------------------------------------------|-------------------------|
||o-7-------------------------2-3p0-2-0-2-------|-76/7---------------------|
||-----0-0-0-0-0-0-0-0-0-2-3-5-------------0-0-0-|-------0-0-0-0-0-0-0-0-0-|
       . . . . . . . . . . . . . . . . . . . . .         . . . . . . . . .

-------------------------|------------------------------------------------|
-------------------------|------------------------------------------------|
-------------------------|-9----------------------------------------------|
-------------------------|------------------------------------------------|
-------2-3---------------|-7-------------------------2-3------------------|
-2-3-5-----0-2-3-0-0-0-0-|----0-0-0-0-0-0-0-0-0-2-3-5-----0-3-0-3-2-1-2---|
 . . . . . . . . . . . .      . . . . . . . . . . . . . . . . . . . . .

----------------------------------------------||
---------------------------------------------o||
----------------------------------------------||
-------4----------4----------4----------4-----||
-------3----------3----------3----------3----o||
-2-2-2----0-2-2-2----0-2-2-2----0-2-2-2----0--||
 . . .    . . . .    . . . .    . . . .    .

[Riff 2a /both guitars/]
|---------------------------------------------------------------------|
|---------------------------------------------------------------------|
|----8/9--8--9----------------8/9-8--9-12--11-10-11--------8/9--8--9--|
|---------------------------------------------------------------------|
|-2--6/7--6--7-------------2--6/7-6--7-10--9--8--9---------6/7--6--7--|
|-0-------------0"........-0------------------------0"....------------|

-----------------------------------------------|
-----------------------------------------------|
-----------------------------------------------|
---------4----------4----------4----------4----|
---------3----------3----------3----------3----|
-0-2-2-2----0-2-2-2----0-2-2-2----0-2-2-2----0-|
 . . . .    . . . .    . . . .    . . . .    .

[Riff 2b /both guitars/]
|---------------------------------------------------------------------|
|---------------------------------------------------------------------|
|----8/9--8--9----------------8/9-8--9-12--11-10-11--------8/9--8--9--|
|---------------------------------------------------------------------|
|-2--6/7--6--7-------------2--6/7-6--7-10--9--8--9---------6/7--6--7--|
|-0-------------0"........-0------------------------0"....------------|
|
|---------------------------------------------------------------------|
|---------------------------------------------------------------------|
|---11/12-11-12--------------11/1211-1215--14-13-14-------11/12-11-12-|
|---------------------------------------------------------------------|
|-2--9/10-9--10------------2--9/109--1013--12-11-12--------9/10-9--10-|
|-0-------------0"........-0------------------------0"....------------|

-----------------------------------------------|
-----------------------------------------------|
-----------------------------------------------|
---------4----------4----------4----------4----|
---------3----------3----------3----------3----|
-0-2-2-2----0-2-2-2----0-2-2-2----0-2-2-2----0-|
 . . . .    . . . .    . . . .    . . . .    . |
-----------------------------------------------|
-----------------------------------------------|
-----------------------------------------------|
---------4----------4----------4----------4----|
---------3----------3----------3----------3----|
-0-2-2-2----0-2-2-2----0-2-2-2----0-2-2-2----0-|
 . . . .    . . . .    . . . .    . . . .    .

[RIFF 1 (x2)] [RIFF 2a] [RIFF 2b]

[Riff 3 (x4)]
||-------------------------------------------------------------------||
||o-----------------------------------------------------------------o||
||-------------------------------------------------------------------||
||--0-0-0-0-0-0-0-1-0-0-0-0-0-0-0-0-3-3-3-3-3-3-3-3------------------||
||o-2-2-2-2-2-2-2-3-2-2-2-2-2-2-2-2-5-5-5-5-5-5-5-5-3-3-3-3-2-------o||
||--------------------------------------------------4-4-4-4---3-2-1--||
    . . . . . . . . . . . . . . . . . . . . . . . . . . . . . . . .

[Riff 4 (x4)]
||-------------------------------------------------------||
||o--------------------------8--9-----------------------o||
||----------9--8--9----------9--10-----------------------||
||---------------------------9--10-----------------------||
||o---------7--6--7----------7--8-----------------------o||
||--000-000----------000-000-------7~-8~-0-6--5--2--1~---||
    ... ...          ... ...             .

[RIFF 3 (x4) /under solo/] [RIFF 4 (x4)]

[Riff 5 (x4)]
||---------------------------|--------------------------------------|
||o--------------------------|-----------------------------------o--|
||------9--8-----------------|-----9--8-----------------------------|
||--2--------------7--6-6---|-2-------------------------------------|
||o-2---7--6----6--8--7-7---|-2---7--6---6--7---2--3----2-3-1-2-o---|
||--0-----------7------------|-0----------7--8---3--4--0-4-5-2-3----|
                                                 .     . . . . .

[Riff 6 (x2)]
||-----------------------------|----------------------------||
||o----------------------------|----------------------------||
||-----------------------------|----------------------------||
||---2-----5-----4-------------|-2-----5-----4--------------||
||-o-2-----2-----1-------------|-2-----2-----1-----2-3-1-2-o||
||---0-----3-----2-------------|-0-----3-----2-----4-5-2-3--||
                                                   . . . .

[RIFF 5 (x4)] [RIFF 6 (x2)]

END OF SONG

www.MetalTabs.com
Добавлено: 19.07.2012
Другие материалы по этой песне:
  • Аккорды и текст

Страница создана 19.07.2012
http://primanota.ru/vile/deafening-silence-chords.htm
Привет, Гость.
Предлагаем пройти революционный курс по гитаре.
Подарок от PrimaNota.Ru, забирай!