PrimaNota.ru - самый крупный в мире бесплатный архив песенных текстов, аккордов, табулатур и нот


Vile - Butchered - текст песни, таба, видео

Регистрация Запомнить меня
Войти через:  Facebook Google Twitter Vk Yandex Mail.ru

Vile - Butchered - текст песни, таба, видео

Печатать
Просмотров: 92
Band: Vile
Album: Depopulate
Song: Butchered


Code:
Suffixes for bend:
fb - full bend       hb - half bend
qb - quarter bend    t - tap bend
^ - Hold bend        r - release bend
~ - vibrato bend

Suffixes for harmonic:
ph - pinched harmonic      nh – natural harmonic
ah – artificial harmonic   hh – harp harmonic

Suffixes for mute:
. – palm mute            x – staccato mute
, - light palm mute      ; - heavy palm mute

Other:
/ - slide up to            \ - slide down to       
h - hammer on              p - pull off
‘ - sustained note         * - see comment
" - tremolo note           <> - Trill
L – left channel only      R – right channel only
= - 12 string guitar part

Tuning A# D# G# C# F A#

Riff 1 (0:00) play 4 times
|----------------------------------------------------------------
|----------------------------------------------------------------
|-------------999999-------------999888-------------999999-------
|----------------------------------------------------------------
|-------0h5h8--------------0h5h8--------------0h5h8--------------
|-0h4h7--------------0h4h7--------------0h4h7--------------0h4h7-

-------------------|
-------------------|
-------------------|
-------------0h6h9-|
-0h5h8-------------|
-------0h4h7-------|

Fill 1 (0:18)
|---------------------------------------|
|---------------------------------------|
|-------------999999-------------999888-|
|---------------------------------------|
|-------0h5h8--------------0h5h8--------|
|-0h4h7--------------0h4h7--------------|



Riff 2a (0:20)
|---------------------------------------------------------|
|---------------------------------------------------------|
|---------------------------------------------------------|
|-----------------------------------3h6-3h4p3-------------|
|-5"-4"----5"-4"--------------3h6-----------------2h3p2-1-|
|-------6"-------6"-5h6p5-2h5-----2-----------2h5---------|
                                  .                   

Riff 2b (0:24)
|---------------------------------------------------------|
|---------------------------------------------------------|
|---------------------------------------------------------|
|-----------------------------------3h6-3h4p3-------------| gtr 1
|-5"-4"----5"-4"--------------3h6-----------------2h3p2-1-|
|-------6"-------6"-5h6p5-2h5-----2-----------2h5---------|
                                  .
|---------------------------------------------------------|
|---------------------------------------------------------|
|-----------------------------------1h4-1h2p1-------------|
|-----------------------------1h2-------------------------| gtr 2
|-5"-4"----5"-4"----------------------------------2h3p2-1-|
|-------6"-------6"-5h6p5-2h5-----2-----------2h5---------|
                                  .

Riff 2a x 1 (0:29)

Riff 2c (0:33)
|-----------------------------|
|-----------------------------|
|-----------------------------|
|-----------------------------|
|-5"-4"----5"-4"--------------|
|-------6"-------6"-5h6p5-2h5-|

Riff 1 x 1 (0:36)
Riff 2 x 1 (0:54)

Riff 3a (1:11) play twice
|------------------------------------------------|
|------------------------------------------------|
|------------------------------------------------|
|------------------------------------------------|
|-2"--------------1h2p1-2"-------------2"-1"-----|
|----2"-1"--2"-4"----------2"-1"-2"-3"-------4"--|

Riff 3b (1:20) play twice
|------------------------------------------------|
|------------------------------------------------|
|------------------------------------------------|
|------------------------------------------------| gtr 1
|-2"--------------1h2p1-2"-------------2"-1"-----|
|----2"-1"--2"-4"----------2"-1"-2"-3"-------4"--|

|------------------------------------------------|
|------------------------------------------------|
|------------------------------------------------|
|------------------------------------------------| gtr 2
|-5"--------------4h5p4-5"-------------5"-4"-----|
|----2"-1"--2"-4"----------2"-1"-2"-3"-------4"--|


Riff 4a (1:29)
|-0h3h6-----------------------------------|
|-------------0h3h6-----------------------|
|-------0h3h6-----------------------------|
|-------------------0h3h6-----------------|
|-------------------------444333----------|
|-------------------------------444333222-|

Riff 4b (1:29) play 4 times
|-0h3h6--------------------------------------|
|-------------0h3h6--------------------------|
|-------0h3h6--------------------------------|
|-------------------0h3h6--------------------|
|-------------------------444333-------4--5--|
|-------------------------------444333-2--3--|
                                       .  .

Riff 3a x 1 (1:41)
Riff 3b x 1 (1:50)

Riff 5a (1:59) play twice
|-------------------------------------------------|
|-------------------------------------------------|
|-------------------------------------------------|
|---------------------------------------7-----8---|
|---4-3---3-----4-5---4-5---6-5---5-------6-----7-|
|-2-----4---4-3-----3-----4-----7---6-5-----6-----|
    . . .   . . .   . . .   . . .   . .   . .   .

Riff 5b (2:07) play twice
|-------------------------------------------------|
|-------------------------------------------------|
|-------------------------------------------------|
|---------------------------------------7-----8---|
|---4-3---3-----4-5---4-5---6-5---5-------6-----7-|
|-2-----4---4-3-----3-----4-----7---6-5-----6-----|
    . . .   . . .   . . .   . . .   . .   . .   .

|-----------------------------------------------------|
|-----------------------------------------------------|
|-----------------------------------------------------|
|----------------------------------------10-----11----| gtr 2
|---7-6---6-----7-8---7-8---9-8----8--------9------10-|
|-5-----7---7-6-----6-----7-----10---9-8------9-------|
    . . .   . . .   . . .   . . .   . .    . .    .

Riff 6 (2:14) play 4 times
|---------------------------------------------------------|
|---------------------------------------------------------|
|---------------------------------------------------------|
|----------333----------------------555-------------------|
|-4--5--222---444333222333-4--5--222------444333222---222-|
|-2--3---------------------2--3--------222---------111----|
  .  .                     .  .

Solo begins (2:15)
Solo ends (2:36)
Riff 5a x 1 (2:34)
Riff 5b x 1 (2:42)
End.
Добавлено: 30.06.2013
Другие материалы по этой песне:
  • Аккорды и текст

Страница создана 29.05.2012
http://primanota.ru/vile/butchered-chords.htm
Привет, Гость.
Предлагаем пройти революционный курс по гитаре.
Подарок от PrimaNota.Ru, забирай!