PrimaNota.ru - самый крупный в мире бесплатный архив песенных текстов, аккордов, табулатур и нот


Vile - Alive To Suffer - таба, видео

Регистрация Запомнить меня
Войти через:  Facebook Google Twitter Vk Yandex Mail.ru

Vile - Alive To Suffer - таба, видео

Печатать
Просмотров: 71
Album: Stench of the Deceased
Song: Alive To Suffer

 
Code:
Suffixes for bend:
fb - full bend       hb - half bend
qb - quarter bend    t - tap bend
^ - Hold bend        r - release bend
~ - vibrato bend

Suffixes for harmonic:
ph - pinched harmonic      nh – natural harmonic
ah – artificial harmonic   hh – harp harmonic

Suffixes for mute:
. – palm mute            x – staccato mute
, - light palm mute      ; - heavy palm mute

Other:
/ - slide up to            \ - slide down to       
h - hammer on              p - pull off
‘ - sustained note         * - see comment
" - tremolo note           <> - Trill
L – left channel only      R – right channel only
= - 12 string guitar part

Tuning D G C F A D

Riff 1 (0:02)
                                             [x4]                      [x1]
|-----------------------------------------------|-------------------------|
|-----------------------------------------------|-------------------------|
|-----------------------------------------------|-------------------------|
|-----------------------------6"-----7"-6"------|-------------------------|
|-------6"-------6"-5"---------------------7"---|-------6"-------6"-5"----|
|-4"-5"----4"-7"-------6"-4"------4"------------|-4"-5"----4"-7"-------6"-|


Riff 2 (0:25) play twice
|-------------------------------------------------|
|-------------------------------------------------|
|-------------------------------------------------|
|----5"----------------------5"-------------------|
|-----------5"-445"-8"-9"-----------5"-445"-9"-8"-|
|-6"----8"----------------6"----8"----------------|

Riff 3 (0:34) play twice
|-------------------------------------------------|
|-------------------------------------------------|
|-------------------------------------------------|
|----1"----------------------1"-------------------|
|-----------1"-001"-4"-5"-----------1"-001"-5"-4"-|
|-2"----4"----------------2"----4"----------------|

Riff 4 (0:44) play 4 times
|-----------------------------------------------------------|
|-----------------------------------------------------------|
|-----------------------------------------------------------|
|-----------2-3---2-----------------------------------------|
|-------2-5-----5---3-5-2-3-7--6--------2-3-5-3-2-----4--3--|
|-2-4-5---------------------5--4--0-1-4-----------5-4-2--1--|
  . . . . . . . . . . . . .       . . . . . . . . . .

Riff 5 (1:02) play 3 times
|---------------------------------------------------------------|
|---------------------------------------------------------------|
|---------------------------------------------------------------|
|-4---3---4\3--------------------4---3---4\3--------------------|
|---------------------------------------------------------------|
|---2---2-----111-222-111-2\1/4----2---2-----1-1-222-111-2\1/4--|
    .   .     ... ... ...          .   .     . . ... ...

Riff 3 x 1 (1:18)

Riff 6 (1:28) play twice
|-----------------------------------------------|
|-----------------------------------------------|
|-----------------------------------------------|
|----1"--------------------1"-------------------|
|-----------1"-001"-4"------------1"-001"-5"-4"-|
|-2"----4"--------------2"----4"----------------|

Riff 4 x 1 (1:38)

Riff 7 (1:55) play 4 times
|---------------------------------------------|
|---------------------------------------------|
|---------------------------------------------|
|-5--4--4-------------------------------------|
|-3--2--2--2h5-3h6-4h7--5--4--3------2-5-5-4--|
|-3--2--2---------------3--2--1--000-0-3-3-2--|
                                 ... . . . .

Riff 8a (2:11) play twice      * = indicates only on first time
         [*]
|----------|-------------------------------------------------|
|----------|-------------------------------------------------|
|----------|-------------------------------------------------|
|-5--4--4--|-------------------------------------------------|
|-3--2--2--|-2h5-3h6-4h7-2h5-3h6-4h7-2h5-3h6-1h4-------------|
|-3--2--2--|-------------------------------------2h5-3h6-1h4-|

Riff 8b (2:20) play twice
|---------------------------------------------------|
|---------------------------------------------------|
|---------------------------------------------------|
|---------------------------------------------------| gtr 1
|-2h5-3h6-4h7--2h5-3h6-4h7--2h5-3h6-1h4-------------|
|---------------------------------------2h5-3h6-1h4-|

|---------------------------------------------------|
|---------------------------------------------------|
|---------------------------------------------------|
|---------------------------------------------------| gtr 2
|-5h8-6h9-7h10-5h8-6h9-7h10-5h8-6h9-4h7-------------|
|---------------------------------------5h8-7h9-4h7-|

Riff 7 x 1 (2:28)

Riff 9 (2:42) play 6 times
|-----------------------------------------------------------------|
|-----------------------------------------------------------------|
|-----------------------------------------------------------------|
|-----------------------------------------------------------------|
|-----1-3-----1-2---2-3-5p4---------6/7-----5/6-----5\4---6-------|
|-2-3-----2-3-----5---------5-4-555-----555-----666-----6---6-5-3-|
  . . . . . . . . . . .     . . ...     ...     ...     .   . . .

Riff 10a (3:09) play 4 times
|--------------------------------------------------------|
|--------------------------------------------------------|
|--------------------------------------------------------|
|---------------------------------------9--8-9-11-9\8/9--|
|-2h3p2-------1---1h2p1-------2---2h3p2-7--6-7-9--7\6/7--|
|-------0-1-3---3-------0-1-3---3-------5--4-5-7--5\4/5--|
        . . . . .       . . . . .          . . .

Riff 10b (3:29)
|---------------------------------------------------------|
|---------------------------------------------------------|
|---------------------------------------------------------|
|---------------------------------------9--8--9--11-10-11-|
|-2h3p2-------1---1h2p1-------2---2h3p2-7--6--7--9--8--9--|
|-------0-1-3---3-------0-1-3---3-------5--4--5--7--6--7--|
        . . . . .       . . . . .

Riff 5 x 1 (3:34)
End (3:44)
Добавлено: 04.07.2013
Другие материалы по этой песне:
  • Аккорды и текст

Страница создана 04.07.2013
http://primanota.ru/vile/alive-to-suffer-chords.htm
Привет, Гость.
Предлагаем пройти революционный курс по гитаре.
Подарок от PrimaNota.Ru, забирай!