PrimaNota.ru - самый крупный в мире бесплатный архив песенных текстов, аккордов, табулатур и нот


Виктор Зинчук - Из нотной тетради Магдалены Бах - аккорды и текст, видео

Регистрация Запомнить меня
Войти через:  Facebook Google Twitter Vk Yandex Mail.ru

Виктор Зинчук - Из нотной тетради Магдалены Бах - аккорды и текст, видео

Печатать
Просмотров: 495
Уроки эстрадного вокала в Санкт-Петербурге
Из нотной тетради Магдалены Бах
Виктор Зинчук
 
   1 part:
 E---------------------------------|
 H||---7---7p5---7~~-12------------------------------------|
 G||*--------------------12-/-9--7-6-7-6h7p6--4-/2-2-------|
 D||*------------------------------------------------------|
 A---------------------------------|
 E---------------------------------|


 E-------------------------------------------------|
 H|--10~~----------5-4-/10-8-8~~-------3-2-/8-7-7~~--9-10/3-3--|
 G|-------11--5-4---------------9/4-2-------------------------|
 D-------------------------------------------------|
 A-------------------------------------------------|
 E-------------------------------------------------|

 E-------------------------------------------||
 H|--5-7-7-5--3-2-0--0h2-3-3~~-2-0-----------------------||
 G---------------------2~~------------------*||
 D------------------------------------------*||
 A-------------------------------------------||
 E-------------------------------------------||

   2 part:
 E|--------5~~-----------7~~-5-3-2-3p2-3~~----|
 H--------------------------------|
 G||*---6~~-7-6-4-6-2-----------5--4----------------------|
 D||*-----------------------------------------------------|
 A--------------------------------|
 E--------------------------------|

 E----------------------------------------------|
 H|--7-5----------------------7-8~~-7-----------------------|
 G|------7-6-4--3-4-/6~-7-/9~---------9-7-6-4--6-7-9-7~~----|
 D----------------------------------------------|
 A----------------------------------------------|
 E----------------------------------------------|


 E---------7~~--------------------------------|
 H---7---------10-9-7--10---------------------|
 G|--4h6p4----7~~--9-7-----------9--------6-7-6h7p6-------|
 D------------------------7-9-----------------|
 A--------------------------------------------|
 E--------------------------------------------|

 E--------------------------------------------|
 H---7------~~8-7-7~~-10-8-8~~----------------|
 G|---4-/-2---7~~--9-9~~----------------------------------|
 D--------------------------------------------|
 A--------------------------------------------|
 E--------------------------------------------|


 E-----------------------------8-8-7~~--------|
 H-8-8---7~~--7-8-10-/-3--7-10----------------|
 G|------6-/-9-----9--------------------------------------|
 D|--7~~--------------------------------------------------|
 A--------------------------------------------|
 E--------------------------------------------|
 
 E-------0-2-3-3-2--------------------------------||
 H|--3-2-5-/8-8~~--------------5-3p2---2-2h3p2h3p2---2-3--3---||
 G---4-2-----------------4-------------4-----2---*||
 D------------------------------------------0----*||
 A------------------------------------------------||
 E------------------------------------------------||
Добавлено: 16.04.2012
Другие материалы по этой песне:
  • Аккорды и текст

Страница создана 16.04.2012
http://primanota.ru/viktor-zinchuk/iz-notnoi-tetradi-magdaleny-bax-chords.htm
Привет, Гость.
Предлагаем пройти революционный курс по гитаре.
Подарок от PrimaNota.Ru, забирай!