PrimaNota.ru - самый крупный в мире бесплатный архив песенных текстов, аккордов, табулатур и нот


Viet Cong - Unconscious Melody - таба, видео

Регистрация Запомнить меня
Войти через:  Facebook Google Twitter Vk Yandex Mail.ru

Viet Cong - Unconscious Melody - таба, видео

Печатать
Просмотров: 58
-------------------------------------------------------------------------------
                             Unconscious Melody - Viet Cong
-------------------------------------------------------------------------------

Tuning: Standard

(Intro and a little more, still working on the full song)

The song is played with two guitars, I'm just tabbing what I hear

This is definitely not what they play but it sounds okay when played alone

Intro Chord Progression: A Bm D A

e|---------------------------------------------------------------------------|
B|----12--10------10---------------------------------------------------------|
G|------------11------11--9h11-9h11-9h11-9h11--------------------------------| 4x
D|---------------------------------------------12----------------------------|
A|---------------------------------------------------------------------------|
E|---------------------------------------------------------------------------|

e|---------------------------------------------------------------------------|
B|----12--10------10---------------------------------------------------------|
G|------------11------11--9--------------------------------------------------|
D|---------------------------------------------------------------------------|
A|---------------------------------------------------------------------------|
E|---------------------------------------------------------------------------|

e|---------------------------------------------------------------------------|
B|----12--10------10---------------------------------------------------------|
G|------------11------11--9--------------------------------------------------|
D|---------------------------------------------------------------------------|
A|---------------------------------------------------------------------------|
E|---------------------------------------------------------------------------|

e|---------------------------------------------------------------------------|
B|-------10----10----10----10----12--10------10------------------------------|
G|----11----11----11----11----9----------11----------------------------------|
D|---------------------------------------------------------------------------|
A|---------------------------------------------------------------------------|
E|---------------------------------------------------------------------------|

e|---------------------------------------------------------------------------|
B|-------10----10----10----10----------------12--15--17--19------------------|
G|----11----11----11----11----9--11--14--16----------------------------------|
D|---------------------------------------------------------------------------|
A|---------------------------------------------------------------------------|
E|---------------------------------------------------------------------------|

e|---------------------------------------------------------------------------|
B|-------10----12----12------------------------------------------------------|
G|----11----11----14---------------------------------------------------------|
D|---------------------------------------------------------------------------|
A|---------------------------------------------------------------------------|
E|---------------------------------------------------------------------------|
Добавлено: 20.09.2014
Другие материалы по этой песне:
  • Аккорды и текст

Страница создана 20.09.2014
http://primanota.ru/viet-cong/unconscious-melody-chords.htm
Привет, Гость.
Предлагаем пройти революционный курс по гитаре.
Подарок от PrimaNota.Ru, забирай!