PrimaNota.ru - самый крупный в мире бесплатный архив песенных текстов, аккордов, табулатур и нот


Viet Cong - Death - таба, видео

Регистрация Запомнить меня
Войти через:  Facebook Google Twitter Vk Yandex Mail.ru

Viet Cong - Death - таба, видео

Печатать
Просмотров: 161
-------------------------------------------------------------------------------
                             Death- Viet Cong
-------------------------------------------------------------------------------

Tuning: Standard

Tab written not relative to capo

Guitar 1: Capo 4
Guitar 2: No Capo

(0:00 - 1:12)

Guitar 1:

e|---------------------------------------------------------------------------|
B|--------------7------------------------------------------------------------|
G|------6--------------------------------------------------------------------|
D|----------4----------------------------------------------------------------|
A|--6------------------------------------------------------------------------|
E|---------------------------------------------------------------------------|

Guitar 2:

e|---------------------------------------------------------------------------|
B|----------------7----------------------------------------------------------|
G|------8-------8------------------------------------------------------------| guitar 2 plays this riff for
D|--------9---9--------------------------------------------------------------| a long time, so I will only
A|--6-6-----6----------------------------------------------------------------| include the parts where it
E|---------------------------------------------------------------------------| is different

(1:13 - 1:37)

Guitar 1:

e|---------------------------------------------------------------------------|
B|---------------------------------------------------------------------------|
G|---------------------------------------------------------------------------|
D|------4-4------------------------------------------------------------------|
A|--6-6-----8-8-4-4----------------------------------------------------------|
E|---------------------------------------------------------------------------|

(1:38 - 1:50)

Guitar 1:

e|---------------------------------------------------------------------------|
B|---------------------------------------------------------------------------|
G|---------------------------------------------------------------------------|
D|------4-4------------------------------------------------------------------|
A|--4-4-----6-6--------------------------------------------------------------|
E|--------------7-7----------------------------------------------------------|

(1:51 - 2:08)

Guitar 1:

this part is a little hard to hear

e|---------------------------------------------------------------------------|
B|---------------------------------------------------------------------------|
G|---------------------------------------------------------------------------|
D|---------------------------------------------------------------------------|
A|--4------------------------6--------------6--------------------------------|
E|---------------------------------------------------------------------------|

(2:09 - 2:22)

Guitar 1:

e|---------------------------------------------------------------------------|
B|---------------------------------------------------------------------------|
G|---------------------------------------------------------------------------|
D|------4-4------------------------------------------------------------------|
A|--4-4-----6-6--------------------------------------------------------------|
E|--------------7-7----------------------------------------------------------|

(2:23 - 2:34)

Guitar 1:

e|---------------------------------------------------------------------------|
B|---------------------------------------------------------------------------|
G|---------------------------------------------------------------------------|
D|------4-4------------------------------------------------------------------|
A|--6-6-----8-8-4-4----------------------------------------------------------|
E|---------------------------------------------------------------------------|

(2:35 - 2:47)

Guitar 1:

e|---------------------------------------------------------------------------|
B|---------------------------------------------------------------------------|
G|---------------------------------------------------------------------------|
D|------4-4------------------------------------------------------------------|
A|--4-4-----6-6--------------------------------------------------------------|
E|--------------7-7----------------------------------------------------------|

(2:48 - 2:56)

Guitar 1:

e|---------------------------------------------------------------------------|
B|---------------------------------------------------------------------------|
G|---------------------------------------------------------------------------|
D|---------------------------------------------------------------------------|
A|--4------------------------6--------------6---------6--------6-------------|
E|---------------------------------------------------------------------------|

(2:57 - 2:58)

Guitar 1:

e|---------------------------------------------------------------------------|
B|---------------------------------------------------------------------------|
G|---------------------------------------------------------------------------|
D|------4-4------------------------------------------------------------------|
A|--4-4-----6-6--------------------------------------------------------------|
E|--------------7-7----------------------------------------------------------|

(2:59 - 3:05)

Guitar 1:

e|---------------------------------------------------------------------------|
B|---------------------------------------------------------------------------|
G|---------------------------------------------------------------------------|
D|---------------------------------------------------------------------------|
A|--4------------------------6--------------6---------6--------6-------------|
E|---------------------------------------------------------------------------|

(3:06 - 3:30)

Guitar 1:

e|---------------------------------------------------------------------------|
B|---------------------------------------------------------------------------|
G|---------------------------------------------------------------------------|
D|------4-4------------------------------------------------------------------|
A|--4-4-----6-6--------------------------------------------------------------|
E|--------------7-7----------------------------------------------------------|

(3:31 - 3:44)

Guitar 1:

e|---------------------------------------------------------------------------|
B|---------------------------------------------------------------------------|
G|---------------------------------------------------------------------------|
D|---------------------------------------------------------------------------|
A|---------------------------------------------------------------------------|
E|--7-7-7-7-7-7-7-7-7-7-7-7-7-7-7-7-7-7-7-7-7-7-7-7-7-7-7-7-7-7-7-7-7-7-7-7-7|

Guitar 2:

e|---------------------------------------------------------------------------|
B|--7------------------------------------------------------------------------|
G|--8--let ring--------------------------------------------------------------|
D|--9------------------------------------------------------------------------|
A|--6------------------------------------------------------------------------|
E|---------------------------------------------------------------------------|

(3:35 - 6:42)

Guitar 1:

e|------------------------------------------7--------------------------------|
B|------------------------------------------4--------------------------------|
G|------------------------------------------4--------------------------------|
D|------------add this every now and then---4--------------------------------|
A|------------------------------------------4--------------------------------|
E|--7-7-7-7-7-7-7-7-7-7-7-7-7-7-7-7-7-7-7-7-7-7-7-7-7-7-7-7-7-7-7-7-7-7-7-7-7|

Guitar 2:

e|--7-7-7--10-10-10----------------------------------------------------------|
B|--7-7-7--10-10-10----------------------------------------------------------|
G|--8-8-8--11-11-11----------------------------------------------------------|
D|--7-7-7--10-10-10----------------------------------------------------------| not exact # of strums
A|--9-9-9--12-12-12----------------------------------------------------------|
E|--7-7-7--10-10-10----------------------------------------------------------|

Get noisier and move up the register as you go on 

(6:43 - 8:28)

Guitar 1:

e|---------------------------------------------------------------------------|
B|---------------------------------------------------------------------------|
G|---------------------------------------------------------------------------|
D|---------------------------------------------------------------------------|
A|--7--7--7--7--5-7----------------------------------------------------------|
E|---------------------------------------------------------------------------|

Guitar 2:

e|---------------------------------------------------------------------------|
B|---------------------------------------------------------------------------|
G|---------------------------------------------------------------------------|
D|---------------------------------------------------------------------------|
A|--19--19--19--19--17-19----------------------------------------------------|
E|---------------------------------------------------------------------------|

(8:29 - 8:51)

Guitar 1:

e|---------------------------------------------------------------------------|
B|---------------------------------------------------------------------------|
G|--4-4---6------------------------------------------------------------------|
D|------6--------------------------------------------------------------------|
A|---------------------------------------------------------------------------|
E|---------------------------------------------------------------------------|

at 8:39 switch to this

e|---------------------------------------------------------------------------|
B|---------------------------------------------------------------------------|
G|--4-----6------------------------------------------------------------------|
D|----4-6--------------------------------------------------------------------|
A|---------------------------------------------------------------------------|
E|---------------------------------------------------------------------------|

Guitar 2:

e|---------------------------------------------------------------------------|
B|---------------------------------------------------------------------------|
G|-----21--------------------------------------------------------------------|
D|--17----17-----------------------------------------------------------------|
A|---------------------------------------------------------------------------|
E|---------------------------------------------------------------------------|

(8:52 - 9:00)

Guitar 1:

e|---------------------------------------------------------------------------|
B|---------------------------------------------------------------------------|
G|---------------------------------------------------------------------------|
D|--6-6----------------------------------------------------------------------|
A|-------4----4--------------------------------------------------------------|
E|---------------------------------------------------------------------------|

Guitar 2:

e|---------------------------------------------------------------------------|
B|---------------------------------------------------------------------------|
G|--------19-------19-------21-19--------------------------------------------|
D|--18-19----18-19----18-19-------19-----------------------------------------|
A|---------------------------------------------------------------------------|
E|---------------------------------------------------------------------------|

e|---------------------------------------------------------------------------|
B|---------------------------------------------------------------------------|
G|---------------------------------------------------------------------------|
D|--18-18-14-16--------------------------------------------------------------|
A|---------------------------------------------------------------------------|
E|---------------------------------------------------------------------------|

2x

(9:01 - 9:23)

Guitar 1:

e|---------------------------------------------------------------------------|
B|---------------------------------------------------------------------------|
G|--4-4---6------------------------------------------------------------------|
D|------6--------------------------------------------------------------------|
A|---------------------------------------------------------------------------|
E|---------------------------------------------------------------------------|

at 9:15 switch to this

e|---------------------------------------------------------------------------|
B|---------------------------------------------------------------------------|
G|--4-----6------------------------------------------------------------------|
D|----4-6--------------------------------------------------------------------|
A|---------------------------------------------------------------------------|
E|---------------------------------------------------------------------------|

Guitar 2:

e|---------------------------------------------------------------------------|
B|---------------------------------------------------------------------------|
G|---------------------------------------------------------------------------|
D|--16-16-16-16-16-16-16-16-17-17-17-17-17-17-17-----------------------------|
A|---------------------------------------------------------------------------|
E|---------------------------------------------------------------------------|

(9:24 - 9:57)

Guitar 1:

e|---------------------------------------------------------------------------|
B|---------------------------------------------------------------------------|
G|---------------------------------------------------------------------------|
D|--9--9--9-9----------------------------------------------------------------|
A|---------------------------------------------------------------------------|
E|---------------------------------------------------------------------------|

Guitar 2:

e|--------------19-----------------------------------------------------------|
B|-----17----------17----17-------17-------17----17--------------------------|
G|--19----19-19-------19----19-19----19-19----19-----------------------------|
D|---------------------------------------------------------------------------|
A|---------------------------------------------------------------------------|
E|---------------------------------------------------------------------------|

(9:58 - 10:19)

Guitar 1:

e|---------------------------------------------------------------------------|
B|---------------------------------------------------------------------------|
G|--4-4---6------------------------------------------------------------------|
D|------6--------------------------------------------------------------------|
A|---------------------------------------------------------------------------|
E|---------------------------------------------------------------------------|

Guitar 2:

e|---------------------------------------------------------------------------|
B|---------------------------------------------------------------------------|
G|--------19-------19-------21-19--------------------------------------------|
D|--18-19----18-19----18-19-------19-----------------------------------------|
A|---------------------------------------------------------------------------|
E|---------------------------------------------------------------------------|

e|---------------------------------------------------------------------------|
B|---------------------------------------------------------------------------|
G|---------------------------------------------------------------------------|
D|--18-18-14-16--------------------------------------------------------------|
A|---------------------------------------------------------------------------|
E|---------------------------------------------------------------------------|

(10:19 - 10:42)

Guitar 1:

e|---------------------------------------------------------------------------|
B|---------------------------------------------------------------------------|
G|--4-----6------------------------------------------------------------------|
D|----4-6--------------------------------------------------------------------|
A|---------------------------------------------------------------------------|
E|---------------------------------------------------------------------------|

Guitar 2:

e|--------------19-----------------------------------------------------------|
B|-----17----------17----17-------17-------17----17--------------------------| play sloppily
G|--19----19-19-------19----19-19----19-19----19-----------------------------|
D|---------------------------------------------------------------------------|
A|---------------------------------------------------------------------------|
E|---------------------------------------------------------------------------|

(10:43 - 11:11)

Guitar 1:

e|---------------------------------------------------------------------------|
B|---------------------------------------------------------------------------|
G|---------------------------------------------------------------------------|
D|---------------------------------------------------------------------------|
A|--7--7--7--7-5-------------------------------------------------------------|
E|---------------------------------------------------------------------------|

Guitar 2:

e|---------------------------------------------------------------------------|
B|---------------------------------------------------------------------------|
G|---------------------------------------------------------------------------|
D|---------------------------------------------------------------------------|
A|--19--19--19--19-17--------------------------------------------------------|
E|---------------------------------------------------------------------------|

End of song
Добавлено: 05.07.2015
Другие материалы по этой песне:
  • Аккорды и текст

Страница создана 05.07.2015
http://primanota.ru/viet-cong/death-chords.htm
Привет, Гость.
Предлагаем пройти революционный курс по гитаре.
Подарок от PrimaNota.Ru, забирай!