PrimaNota.ru - самый крупный в мире бесплатный архив песенных текстов, аккордов, табулатур и нот


Vidorra - Love I Recognise - таба, видео

Регистрация Запомнить меня
Войти через:  Facebook Google Twitter Vk Yandex Mail.ru

Vidorra - Love I Recognise - таба, видео

Печатать
Просмотров: 50
Уроки эстрадного вокала в Санкт-Петербурге
------------------------------------------------------------------------------------------------------------
                             LOVE I RECOGNISE - Vidorra feat. Samantha Lloyd
------------------------------------------------------------------------------------------------------------

Sick tune by my mate, check out his music on Soundcloud, iTunes, Spotify, Amazon and Google Play!

Tuning: Standard


Intro/Outro:

e|--------|------------|-11--11-11-|-9--9-9-|--------|------------|-11--11-11-|-9--9---|
B|-11--11-|-11--11-11--|-----------|--------|-11--11-|-11--11-11--|-----------|------9-|
G|--------|------------|-----------|--------|--------|------------|-----------|--------|
D|--------|------------|-----------|--------|--------|------------|-----------|--------|
A|-6---6--|-6---6--6---|-6---6--6--|-6--6-6-|-6---6--|-6---6------|-6---6--6--|-6--6-6-|
E|--------|------------|-----------|--------|--------|------------|-----------|--------|

Bassline: 

G|------1-|-3--3---|-------|--------|------1-|-3--3---|-------|--------|
D|-1--1---|------4-|--4-4--|-3--3-3-|-1--1---|------4-|--4-4--|-3--3-3-|
A|--------|--------|-------|--------|--------|--------|-------|--------|
E|--------|--------|-------|--------|--------|--------|-------|--------|

Chorus riff:

e|-11--11-9-|-----9------|------9----|------9-|-11--11-9-|-----9------|------9----|------9-|
B|----------|-11-----11--|-9-11---11-|---11---|----------|-11-----11--|-9-11---11-|---11---|
G|----------|------------|-----------|--------|----------|------------|-----------|--------|
D|----------|------------|-----------|--------|----------|------------|-----------|--------|
A|----------|------------|-----------|--------|----------|------------|-----------|--------|
E|----------|------------|-----------|--------|----------|------------|-----------|--------|

Добавлено: 01.01.2016
Другие материалы по этой песне:
  • Аккорды и текст

Страница создана 01.01.2016
http://primanota.ru/vidorra/love-i-recognise-chords.htm
Привет, Гость.
Предлагаем пройти революционный курс по гитаре.
Подарок от PrimaNota.Ru, забирай!