PrimaNota.ru - самый крупный в мире бесплатный архив песенных текстов, аккордов, табулатур и нот


Victory - Woman - аккорды и текст, таба, видео

Регистрация Запомнить меня
Войти через:  Facebook Google Twitter Vk Yandex Mail.ru

Victory - Woman - аккорды и текст, таба, видео

Печатать
Просмотров: 60
Woman
Victory
Intro:  Am      F       C     x2

Am
My woman?s always dying to tease me,
    F                            C
she knows me just the way that I am
Am
She?s got a funny way of making it easy
   F                          C
to keep me in the palm of her hand, her hand oh

Am 
Oh woman what you tryin to do?
        F                        C
Tell me woman what you tryin to do?
Am
You got something that is too hard to lose
        F                             C
you got something that is too hard to lose, for me.

Interlude: 

e|-------------------------------------------------------| 
B|-------------------------------------------------------|
G|-------------------------------------------------------|
D|-------------------------------------------------------| 
A|------3-5-7------3-5-7-----3-5-5-3-3-3--10-12-10-12----| x2
E|-5--5-------5--5-------1-1-----------------------------|

Dsus2            F                            C 
Take a minute to figure what you?re tryin to say
Dsus2             F                                C
Looking over your shoulder while you?re picking up praise
Dsus2             F
Are you hoping to find it out the window?
Dsus2             G                      Am
Never took you as someone to be dreaming no
 
Am
My woman?s always taking me over,
    F                     C
she begs me into starting again
Am
It?s such a simple way of shaking me on to her,
F                          C
then she puts my head in a spin, oh a twist
 
Am
Oh woman what you tryin to do,
        F                        C
tell me woman what you tryin to do?
Am
You got something that?ll break me in two,
        F                             C
you got something that?ll break me in two, me in two

Interlude: 

e|-------------------------------------------------------| 
B|-------------------------------------------------------|
G|-------------------------------------------------------|
D|-------------------------------------------------------| 
A|------3-5-7------3-5-7-----3-5-5-3-3-3--10-12-10-12----| x2
E|-5--5-------5--5-------1-1-----------------------------|
 
Dsus2            F                            C 
Take a minute to figure what you?re tryin to say
Dsus2             F                                C
Looking over your shoulder while you?re picking up praise
Dsus2             F
Are you hoping to find it out the window?
Dsus2             G                      Am
Never took you as someone to be dreaming no
Добавлено: 14.11.2014
Другие материалы по этой песне:
  • Аккорды и текст

Страница создана 14.11.2014
http://primanota.ru/victory/woman-chords.htm
Привет, Гость.
Предлагаем пройти революционный курс по гитаре.
Подарок от PrimaNota.Ru, забирай!