PrimaNota.ru - самый крупный в мире бесплатный архив песенных текстов, аккордов, табулатур и нот


Victory - Play It - таба, бас-таба, видео

Регистрация Запомнить меня
Войти через:  Facebook Google Twitter Vk Yandex Mail.ru

Victory - Play It - таба, бас-таба, видео

Печатать
Просмотров: 139
(With Delay effect)

e|---------------------------13--------------------------| 
B|-15--15--13-10--15--15--15----15--15--13-10--15--15----|
G|-------------------------------------------------------|
D|-------------------------------------------------------| 
A|-------------------------------------------------------|
E|-------------------------------------------------------|

e|-----13-15-15-15-13/-17-17-15-13------------------------13----| 
B|--15-----------------------------15--15--13-10-15-15-15-------|
G|--------------------------------------------------------------|
D|--------------------------------------------------------------| 
A|--------------------------------------------------------------|
E|--------------------------------------------------------------|
Добавлено: 25.09.2015
Другие материалы по этой песне:
  • Аккорды и текст

Страница создана 24.09.2014
http://primanota.ru/victory/play-it-chords.htm
Привет, Гость.
Предлагаем пройти революционный курс по гитаре.
Подарок от PrimaNota.Ru, забирай!