PrimaNota.ru - самый крупный в мире бесплатный архив песенных текстов, аккордов, табулатур и нот


Victor And Leo - Timidez - аккорды и текст, видео

Регистрация Запомнить меня
Войти через:  Facebook Google Twitter Vk Yandex Mail.ru

Victor And Leo - Timidez - аккорды и текст, видео

Печатать
Просмотров: 65
Timidez
Victor And Leo
Canchaque - Piura - Perú

- ME costo mucho adaptarla al'portugues pero ahi esta
 disfrútenla.

_Prepromo 2010: ¨Emilio Espinoza''

Mauro, Victor , Jhonathan, Fabrizio , James , Simeón . . .


(intro 2x) E C#m A B7

(solo C acordeon)

E |-------------------------------------|
B |-0-2--5-5-5-4-4-4-5-5-5-4-4-4-5-4----|
G |-------------------------------------|
D |-------------------------------------|
A |-------------------------------------|
E |-------------------------------------|


E |4-4-4-2-2-2--------------------------------2-2--|
B |------------2---5-4-2---------5-4-5-0-0---------|
G |-----------------------4-2----------------------|
D |------------------------------------------------|   (2x)
A |------------------------------------------------|
E |------------------------------------------------|


E
timidez
      C#m        E
Nunca me deixou dançar
      C#m
Nem sequer cantar
    A       B     A
Ver você me fez mudar
     B7
Não sei porquê mas
     E      C#m
Com você dancei
     F#m    B7
Por você cantei
E       C#m       F#m
Sonhei, amei, como fui
  B7      E
Jamais serei

(intro)

(repetir todo)

(última vez)

E |-------------------------------------|
B |-0-2--5-5-5-4-4-4-5-5-5-4-4-4-5-4----|
G |-------------------------------------|
D |-------------------------------------|
A |-------------------------------------|
E |-------------------------------------|


E |4-4-4-2-2-2--------------------------------2-2--|
B |------------2---5-4-2---------5-4-5-0-0---------|
G |-----------------------4-2----------------------|
D |------------------------------------------------|   (2x)
A |------------------------------------------------|
E |------------------------------------------------|


E |-------------------2-4-2-----|
B |-5-4-2------0-2--5-------5---|
G |-------4-2-------------------|
D |-----------------------------|
A |-----------------------------|
E |-----------------------------|
Добавлено: 12.03.2016
Вам также может быть интересно:
Другие материалы по этой песне:
  • Аккорды и текст

Страница создана 12.03.2016
http://primanota.ru/victor-and-leo/timidez-chords.htm
Привет, Гость.
Предлагаем пройти революционный курс по гитаре.
Подарок от PrimaNota.Ru, забирай!