PrimaNota.ru - самый крупный в мире бесплатный архив песенных текстов, аккордов, табулатур и нот


Victim Effect - Backwoods Gunman And Tricky Lawyers - таба, видео

Регистрация Запомнить меня
Войти через:  Facebook Google Twitter Vk Yandex Mail.ru

Victim Effect - Backwoods Gunman And Tricky Lawyers - таба, видео

Печатать
Просмотров: 95
------------------------------------------------------------------------------
             Backwoods Gunman and Trick Lawyers - Victim Effect
------------------------------------------------------------------------------
Tabbed by: almosthuman36

Tuning: D A D G B e

Intro
e|-------------------------------------------------------------------------|
B|-------------------------------------------------------------------------|
G|-------------------------------------------------------------------------|
D|-0-0-0-0-0-0-0-0--2-2-2-2-2-2-2-2--3-3-3-3-3-3-3-3--5-5-5-5--7-----------|
A|-0-0-0-0-0-0-0-0--2-2-2-2-2-2-2-2--3-3-3-3-3-3-3-3--5-5-5-5--7-----------|
D|-0-0-0-0-0-0-0-0--2-2-2-2-2-2-2-2--3-3-3-3-3-3-3-3--5-5-5-5--7-----------|

e|-------------------------------------------------------------------------|
B|-------------------------------------------------------------------------|
G|-------------------------------------------------------------------------|
D|-0-0-0-0-0-0-0-0--2-2-2-2-2-2-2-2--3-3-3-3-3-3-3-3--5----7p5-------------|
A|-0-0-0-0-0-0-0-0--2-2-2-2-2-2-2-2--3-3-3-3-3-3-3-3--5--------------------|
D|-0-0-0-0-0-0-0-0--2-2-2-2-2-2-2-2--3-3-3-3-3-3-3-3--5--------------------|

e|-------------------------------------------------------------------------|
B|-------------------------------------------------------------------------|
G|-------------------------------------------------------------------------|
D|-0-0-x-0-0-0-x-0-2-2-x-2-2-2-x-2-3-3-x-3-3-3-x-3-5-5-x-5--7--------------|
A|-0-0-x-0-0-0-x-0-2-2-x-2-2-2-x-2-3-3-x-3-3-3-x-3-5-5-x-5--7--------------|
D|-0-0-x-0-0-0-x-0-2-2-x-2-2-2-x-2-3-3-x-3-3-3-x-3-5-5-x-5--7--------------|

e|-------------------------------------------------------------------------|
B|-------------------------------------------------------------------------|
G|-------------------------------------------------------------------------|
D|-0-0-x-0-0-0-x-0-2-2-x-2-2-2-x-2-3-3-x-3-3-3-x-3--5----------------------|
A|-0-0-x-0-0-0-x-0-2-2-x-2-2-2-x-2-3-3-x-3-3-3-x-3--5---let-ring-----------|
D|-0-0-x-0-0-0-x-0-2-2-x-2-2-2-x-2-3-3-x-3-3-3-x-3--5----------------------|

e|-------------------------------------------------------------------------|
B|-------------------------------------------------------------------------|
G|------------------------------------9+-----------------------------------|
D|--0000-0-0---0000-0-0---0000-0-0----9+-----let-ring----------------------|
A|--0000-0-0---0000-0-0---0000-0-0-----------------------------------------|
D|--0000-0-0---0000-0-0---0000-0-0-----------------------------------------|

e|-------------------------------------------------------------------------|
B|---------------------------------------6-5-6-8-6-5-----------------------|
G|---------------------------------------x-x-x-x-x-x-----------------------|
D|-0-0-0-------0-0-0---------8-8-8-------3-2-3-5-3-2-----------------------|
A|-0-0-0--5b---0-0-0--5------8-8-8-----------------------------------------|
D|-0-0-0-------0-0-0-----7---8-8-8--7--------------------------------------|

e|-------------------------------------------------------------------------|
B|---------------------------------------6-5-6-8-6-5-----------------------|
G|---------------------------------------x-x-x-x-x-x-----------------------|
D|-0-0-0-------0-0-0---------8-8-8-—3+---3-2-3-5-3-2----0------------------|
A|-0-0-0--5b---0-0-0--5------8-8-8----------------------0---let-ring-------|
D|-0-0-0-------0-0-0-----7---8-8-8----------------------0------------------|

Verse       x4
Guitar 1
Palm Mute first time only
e|-------------------------------------------------------------------------|
B|----6-5-6-8-6-5-6----6-5-6-8-6-5-6----6-5-6-8-6-5-6----6-5-6-8-6-5-------|
G|-------------------------------------------------------------------------|
D|-------------------------------------------------------------------------|
A|-------------------------------------------------------------------------|
D|-------------------------------------------------------------------------|

Guitar 2  
Palm Muted             
e|-------------------------------------------------------------------------|
B|----------------------------------------------------------------6-5------|
G|----------5----------------7----------------5-----------------5----------|
D|----7-5-7---7-5-7----7-5-7---7-7-7----8-7-8----8-7-8----8-7-8------------|
A|-------------------------------------------------------------------------|
D|-------------------------------------------------------------------------|

Pre-Chorus  x3
e|------x--------x--------x-------x----------------------------------------|
B|------6--------6--------6-------6----------------------------------------|
G|------7--------7--------7-------7----------------------------------------|
D|------x--------x--------x-------x---88888888--1010101010101010-----------|
A|--5-5------5-5------5-5-----5-5-----88888888--1010101010101010-----------|
D|------------------------------------88888888--1010101010101010-----------|

Chorus
e|-------------------|
B|-------------------|
G|-------------------|
D|-0-0-0-------------|
A|-0-0-0—pick-slide--|
D|-0-0-0-------------|

X3      Note: Do not play the bend on the first half of the third time.
e|-------------------------------------------------------------------------|
B|---------------------------------------6-5-6-8-6-5-----------------------|
G|---------------------------------------x-x-x-x-x-x-----------------------|
D|-0-0-0-------0-0-0---------8-8-8-------3-2-3-5-3-2-----------------------|
A|-0-0-0--5b---0-0-0--5------8-8-8-----------------------------------------|
D|-0-0-0-------0-0-0-----7---8-8-8--7--------------------------------------|
                                                         Sixth Time
e|----------------------------------------------------|--------------------|
B|---------------------------------------6-5-6-8-6-5--|--------------------|
G|---------------------------------------x-x-x-x-x-x--|--------------------|
D|-0-0-0-------0-0-0---------8-8-8—-3+---3-2-3-5-3-2--|-0------------------|
A|-0-0-0--5b---0-0-0--5------8-8-8--------------------|-0----let-ring------|
D|-0-0-0-------0-0-0-----7---8-8-8-—------------------|-0------------------|


Repeat Verse

Repeat Pre-Chorus

Repeat Chorus

Breakdown: Strum/Pick D minor Chord
e|--0---|-----------0-------------0-5--------------------------------------|
B|--6---|---------6-------------6------------------------------------------|
G|--7---|-------7-------------7--------------------------------------------|
D|--7---|-----7-------------7----------------------------------------------|
A|--5---|---5-------------5------------------------------------------------|
D|------|------------------------------------------------------------------|


Outro             X2
e|-------------|-----------------------------------------------------------|
B|-------------|-----------------------------------------------------------|
G|-------------|-----------------------------------------------------------|
D|-------------|--00000000-0--00000000-0-2-22222222-2--22222222-2-3--------|
A|--Pick-slide-|--00000000-0--00000000-0-2-22222222-2--22222222-2-3--------|
D|-------------|--00000000-0--00000000-0-2-22222222-2--22222222-2-3--------|

e|-------------------------------------------------------------------------|
B|-------------------------------------------------------------------------|
G|-------------------------------------------------------------------------|
D|-33333333-3--33333333-3-5-55555555-5-7-----------------------------------|
A|-33333333-3--33333333-3-5-55555555-5-7-----------------------------------|
D|-33333333-3--33333333-3-5-55555555-5-7-----------------------------------|

e|-------------------------------------------------------------------------|
B|-------------------------------------------------------------------------|
G|-------------------------------------------------------------------------|
D|---7p5---3----2---2-2/3--------------------------------------------------|
A|-------------------------------------------------------------------------|
D|-------------------------------------------------------------------------|

| /  slide up
| \  slide down
| h  hammer-on
| p  pull-off
| ~  vibrato
| +  harmonic
| x  Mute note
Добавлено: 30.07.2012
Другие материалы по этой песне:

Страница создана 11.07.2012
http://primanota.ru/victim-effect/backwoods-gunman-and-tricky-lawyers-chords.htm
Привет, Гость.
Предлагаем пройти революционный курс по гитаре.
Подарок от PrimaNota.Ru, забирай!