PrimaNota.ru - самый крупный в мире бесплатный архив песенных текстов, аккордов, табулатур и нот


Viciouscircle) - Police Brutality - таба, видео

Регистрация Запомнить меня
Войти через:  Facebook Google Twitter Vk Yandex Mail.ru

Viciouscircle) - Police Brutality - таба, видео

Печатать
Просмотров: 44
Vicious Circle - Police Brutality
Track 11 from the album "Reflections" (Reactor Records 1986).

Hardcore Punk band from Melbourne, Australia.
Here's their Facebook: https://www.facebook.com/VICIOUSCIRCLE.EST83

Tabbed by Isaac Murguia, December 2014.
Originally uploaded to Ultimate-Guitar.com
Contact: www.youtube.com/Goadiroth

INTRO:
  Lead
e|------------------------------|
B|------------------------------|
G|------------------------------|
D|-------9999-9999-10-10-10-999-|
A|-10-12------------------------|
E|------------------------------| [x4]
  Rhythm (comes in after lead)
e|------------------------------|--------------|
B|------------------------------|--------------|
G|------------------------------|-0--2---0--4--|
D|------------------------------|-0--2---0--4--|
A|------------------------------|--------------|
E|------------------------------|--------------| [x2]

VERSE:
e|-------------------------|
B|-------------------------|
G|-------------------------|
D|-5/9-9-999999-10-10-10-9-|
A|-5/9-9-999999-10-10-10-9-|
E|-3/7-7-777777-8--8--8--7-| [x4]

CHORUS:
e|------------------------------------|
B|------------------------------------|
G|------------------------------------|
D|-5--7-77777777777--5--9-99999999999-|
A|-5--7-77777777777--5--9-99999999999-|
E|-3--5-55555555555--3--7-77777777777-| [x2]

Repeat VERSE [with INTRO LEAD]
Repeat CHORUS
Repeat VERSE [with INTRO LEAD]

CHORUS VARIATION:
e|------------------------------------|
B|------------------------------------|
G|------------------------------------|
D|-5--7--7--7777--7--5--9--9--9999--9-|
A|-5--7--7--7777--7--5--9--9--9999--9-|
E|-3--5--5--5555--5--3--7--7--7777--7-| [x2]

Repeat VERSE [with INTRO LEAD]
Repeat CHORUS
Repeat VERSE
Repeat INTRO RHYTHM ONLY
Repeat INTRO

End. Please rate!
Добавлено: 10.06.2015
Другие материалы по этой песне:
  • Аккорды и текст

Страница создана 10.06.2015
http://primanota.ru/viciouscircle/police-brutality-chords.htm
Привет, Гость.
Предлагаем пройти революционный курс по гитаре.
Подарок от PrimaNota.Ru, забирай!