PrimaNota.ru - самый крупный в мире бесплатный архив песенных текстов, аккордов, табулатур и нот


Vic Chesnutt - Coward - таба, видео

Регистрация Запомнить меня
Войти через:  Facebook Google Twitter Vk Yandex Mail.ru

Vic Chesnutt - Coward - таба, видео

Печатать
Просмотров: 123
Авторы музыки: Vic Chesnutt
Авторы текста: Vic Chesnutt
Sorry, I was so excited about postin my first tab, that I uploaded an old / wrong version...damn me... here comes the final walkthru solution!

Artist: Vic Chesnutt  
Title: Coward 
Album: At The Cut (Constellation Records)

Standard Tuning / Capo 3rd

H(no7) = x2320x   or   x2300x
H(7) = 023202

Intro /Bridge/Outro
E|----0-2-3----5-3-2----0-----2-0-------------------------------||
h|------------------------3-0-----0-----------------------------||
g|----------------------------------0-------------(2x)----------||
d|------------------------------------2-------------------------||
A|--------------------------------------2-----------------------||
e|--0--------0--------0-----------------------------------------||

Fill (for Verse)
E|----0-2-3----5-3-2---||
h|---------------------||
g|---------------------||
d|--2---------2--------||
A|--2---------2--------||
e|--0---------0--3-2---||  

Verse:
    Em                       D/F#                 Em     (Fill)
The courage of the coward is greater than     the others 

    Em                          D/F#                  Em     (Fill)
A scaredy-cat'll scratch 'im If you back 'im in     a corner

    H(no7)                 Em      (Fill, but slighty different – listen to it!)
but I,  I, I.... am      a COWARD
but I,  I, I.... am      a COWARD

play Intro w/ Distortion
E|----0-2-3----5-3-2----0-----2-0-------------------------------||
h|------------------------3-0---0-------------------------------||
g|------------------------------------------------(2x)----------||
d|--2--------2--------2-----------------------------------------||
A|--2--------2--------2-----------------------------------------||
e|--0--------0--------0-----------------------------------------||

Add a Lot Of Noise to Your Sound! NOW!! Play something like this!
E|--------------------------------------------------||
h|--------------------------------------------------||
g|--------------------------------------------------||
d|--2-2-------4--4-5-4-----2-2---------2------------||
A|--2-2-------0------------2-2---------2------------||
e|--0-0-0-2-3—2------------0-0-0 2-3---0--5-3-2-----||
    Em        D/F#         Em

Em               D/F#                   Em
Courage born of despair and         impotence 

Em                              D/F#                      Em
Submissive dogs can lash out in fear and be Very, very dangerous

    H(7)                 Em
but I,  I, I.... am      a COWARD
but I,  I, I.... am      a COWARD


Outro = Intro + Distortion + Multiple Guitars / PitchshifterFX
Добавлено: 11.08.2013
Другие материалы по этой песне:
  • Аккорды и текст

Страница создана 07.06.2013
http://primanota.ru/vic-chesnutt/coward-chords.htm
Привет, Гость.
Предлагаем пройти революционный курс по гитаре.
Подарок от PrimaNota.Ru, забирай!