PrimaNota.ru - самый крупный в мире бесплатный архив песенных текстов, аккордов, табулатур и нот


Vibrazioni - Dedicato A Te - таба, видео

Регистрация Запомнить меня
Войти через:  Facebook Google Twitter Vk Yandex Mail.ru

Vibrazioni - Dedicato A Te - таба, видео

Печатать
Просмотров: 75
##################################################################################
# This file is the author's own work and represents their interpretation of the  #
# song. You may only use this file for private study, scholarship, or research.  #
##################################################################################
Home page
www.levibrazioni.it

Le Vibrazioni
"DEDICATO A TE"
Tuning Info
#####################
e as e
B as B
G as G
D as D
A as A
E as E
Set Frequency to 440 Hz
#####################


INTRO

Guitar 1 (Acoustic)
Rhy.fig.1
W/pick & finger
                  
e|-----0------------0-----------0-------------0------------0------------0--|
B|-------0---0--------0---0-------0---0--------0-0-------6---6------0---0--|
G|---5-----5------5-----5-----5-----5------5----5-----\7--7-------4--4--4--|
D|7------------6------------5-----------4-----------0-----------6-------6--|
A|-------------------------------------------------------------------------|
E|-------------------------------------------------------------------------|
"Sai certe volte..."

Guitar 2(Electric)
Rhy.fig.2
w/compressor
e|----12------------12-------12--------------12---------|Always similar.
B|------------------------------------------------------|
G|14-----------13---------12------------11--------------|
D|------------------------------------------------------|
A|------------------------------------------------------|
E|------------------------------------------------------|

Lyrics

VERSE 1

Guitar 1 rhy.fig. 1
Guitar 2 rhy.fig. 2

"Sai certe volte accade che ci sia bisogno di andar via
e lasciare tutto al fato___.
Fare come un equilibrista che sul mondo sfida il crollo,
delle sue capacita'___.

CHORUS

Guitar 1,2
(The second guitar made powerchord and improcised very easy slides,don't need tab)

 C             G+        Am         G+         F     
"Ma questo e' dedicato a te, alla tua lucente armonia...
    G+                   C
 sei immensamente Giulia__.
 (C)          G+       Am      G+              F
 Il tuo nome e' come musica, mi riempie e non mi stanca mai_
 E
 Dedicato solo a te__"

VERSE 2

Guitar 1 rhy.fig. 1
Guitar 2 rhy.fig. 2

"Ma chiudi gli occhi aspetta che_ arrivi la mia bocca ad allietarti__
 chissa' dove chissa' come_.
 Vorrei fermare il tempo per godere delle tue fantasie,
 e ascoltare senza interruzioni."






CHORUS

Guitar 1,2
 C             G+        Am         G+         F     
"Ma questo e' dedicato a te, alla tua lucente armonia...
    G+                   C
 sei immensamente Giulia__.
 (C)          G+       Am      G+              F
 Il tuo nome e' come musica, mi riempie e non mi stanca mai_
 E
 Dedicato solo a te__"

BRIDGE
 
(Guitar 2 follow the guitar 1 with arpeggios similar to rhy.fig.2)

 Dm      G(+)
"Respira piano 

ascolta che...

CHORUS.


GUITAR SOLO

Guitar 2
W/dist
  ~   ~  ~   ~   ~  ~       ~                         ~   ~   ~   ~           ~ 
e|-------------------------------------------------------------------------------|
B|---13--15--17--15-----------------------------------13--15--17--15-------------|
G|12-------------------16hbr------------------14--16-----------------------------|
D|-----------------17-------15-14-15-14-15-17-----------------------17-17br17-16-|
A|-------------------------------------------------------------------------------|
E|-------------------------------------------------------------------------------|


ENDING

Guitar 1
w/chorus   (repeat)      (Chorus off)
e|---0-----0-----0----   |0--------------------|Final chord played 
B|--0-0---0-0---0-0------|0--------------------|near the bridge.
G|-6---6-6---6-6---6-----|6--------------------|
D|7-----7-----7-----7----|7--------------------|
A|-----------------------|---------------------|
E|-----------------------|---------------------|
 (improvised fingerstyle)

That's all.

#########################
Tab symbols used:
~: Vibrato.
hbr:1/2 bend and release.
br:full bend and release.
#########################

Guitar chords:
   C    G(+) Am   F    E
e|-0----3----0----1----0-|
B|-1----3----1----1----0-|
G|-0----0----2----2----1-|
D|-2----0----2----3----2-|
A|-3----2----0----3----2-|
E|-0----3----0----1----0-|
      


SONG TABBED BY BRUNO GAMBA 2003.ANY QUESTION  nobbru@libero.it
Добавлено: 14.06.2012
Другие материалы по этой песне:

Страница создана 14.06.2012
http://primanota.ru/vibrazioni/dedicato-a-te-chords.htm
Привет, Гость.
Предлагаем пройти революционный курс по гитаре.
Подарок от PrimaNota.Ru, забирай!