PrimaNota.ru - самый крупный в мире бесплатный архив песенных текстов, аккордов, табулатур и нот


Vibrators - Destroy - бас-таба, видео

Регистрация Запомнить меня
Войти через:  Facebook Google Twitter Vk Yandex Mail.ru

Vibrators - Destroy - бас-таба, видео

Печатать
Просмотров: 131
Vibrators
Destroy
V2

Standard tuning: EADG

99.9% Correct

Intro/Verse5x
|-999999-||-----------------|
|--------||-----------------|
|--------||5-777-5-777-5777-|
|--------||-----------------|

Verse End
|-999999-----------------------|
|------------------------------|
|--------5-777-5-777-5-7-5-3---|
|----------------------------7-|

Chorus x2
|------------------------------|
|------------------------------|
|---------23-33-23-5-577-57-57-|
|-5-5-5-35---------------------|

Chorus End
|---7---------------------|
|--7-7--7-----------------|
|-5----7-7-5-77777----5-7-|
|-----5-----------5-7-----|

Verse
|-999999-||-----------------|
|--------||-----------------|
|--------||5-777-5-777-5777-|
|--------||-----------------|

Verse End
|-999999-----------------------|
|------------------------------|
|--------5-777-5-777-5-7-5-3---|
|----------------------------7-|

Chorus
|------------------------------------------|
|------------------------------------------|
|---------23-33-23-5-577-57-57-\11-\12-15/-|
|-5-5-5-35---------------------------------|

|------------------------------|
|------------------------------|
|---------23-33-23-5-577-57-57-|
|-5-5-5-35---------------------|


Chorus End
|---7---------------------|
|--7-7--7-----------------|
|-5----7-7-5-77777----5-7-|
|-----5-----------5-7-----|

Bridge x2                                   End
|-----------------------------------------||------------|
|-----------------------------------------||---66-77-99-|
|---------------------77777---5-77777-575-||-77---------|
|-77777-055-77777-055------5-7------------||------------|


|----------------------------------------|
|---------------------66-77-99-----------|
|-------------------77--------10-9-7-777-|
|-777777-10-9-7-777----------------------|

|----------------------------------------------|
|---------------------66-77-99-9\161616-7-9-7--|
|-------------------77------------------------9|
|-777777-10-9-7-777----------------------------|

|----------------------------------------|
|---------------------66-77-99-----------|
|-------------------77--------10-9-7-777-|
|-777777-10-9-7-777----------------------|

Chorus x2
|------------------------------|
|------------------------------|
|---------23-33-23-5-577-57-57-|
|-5-5-5-35---------------------|

Chorus End
|---7---------------------|
|--7-7--7-----------------|
|-5----7-7-5-77777----5-7-|
|-----5-----------5-7-----|

Verse x8
|-999999-||-----------------|
|--------||-----------------|
|--------||5-777-5-777-5777-|
|--------||-----------------|

Outro x9
|-999999-|
|--------|
|--------|
|--------|

The End

tabbed by: rnrstooge125@yahoo.com
Добавлено: 29.05.2012
Другие материалы по этой песне:
  • Аккорды и текст

Страница создана 29.05.2012
http://primanota.ru/vibrators/destroy-chords.htm
Привет, Гость.
Предлагаем пройти революционный курс по гитаре.
Подарок от PrimaNota.Ru, забирай!