PrimaNota.ru - самый крупный в мире бесплатный архив песенных текстов, аккордов, табулатур и нот


Vhaldemar - Lost World - таба, видео

Регистрация Запомнить меня
Войти через:  Facebook Google Twitter Vk Yandex Mail.ru

Vhaldemar - Lost World - таба, видео

Печатать
Просмотров: 50
-------------------------------------------------------------------------------
                            Lost World - Vhaldemar
-------------------------------------------------------------------------------
www.vhaldemar.net
Tabbed by:ghidorah89
E-mail:

Tuning:

e|-----0--1-----5-----6-----3--5-5-----0--1----------------------------------|
B|--3--------3-----3-----3----------3--------3--5--1-------------------------|
G|----------------------------------------------------2----------------------|
D|---------------------------------------------------------------------------|
A|---------------------------------------------------------------------------|
E|---------------------------------------------------------------------------|

e|-----0--1-----5-----6-----3--5-5--5--5-3-1-1-1-3--0-----5-----10-----------|
B|--3--------3-----3-----3-----------------------------3---------------------|
G|---------------------------------------------------------------------------|
D|---------------------------------------------------------------------------|
A|---------------------------------------------------------------------------|
E|---------------------------------------------------------------------------|


************************************

| /   slide up
| \   slide down
| h   hammer-on
| p   pull-off
| ~   vibrato
| +   harmonic
| x   Mute note
| b   Bend
| pb  Pre-bend
| br  Bend release
| pbr Pre-bend release
| brb Bend release bend

************************************
Добавлено: 21.05.2016
Другие материалы по этой песне:

Страница создана 21.05.2016
http://primanota.ru/vhaldemar/lost-world-chords.htm
Привет, Гость.
Предлагаем пройти революционный курс по гитаре.
Подарок от PrimaNota.Ru, забирай!