PrimaNota.ru - самый крупный в мире бесплатный архив песенных текстов, аккордов, табулатур и нот


Vex Red - The Closest - аккорды и текст, таба, видео

Регистрация Запомнить меня
Войти через:  Facebook Google Twitter Vk Yandex Mail.ru

Vex Red - The Closest - аккорды и текст, таба, видео

Печатать
Просмотров: 104
Уроки эстрадного вокала в Санкт-Петербурге
Авторы: Nick Goulding, Anthony Forbes, Terry Abbott, Keith Lambert

The Closest
Vex Red
Song: The Closest
Band: Vex Red
Tuning: Dropped-D(DADGBe)
Tabbed By $@NDER
Intro
e|-------------------------------------------------|
B|-------------------------------------------------|
G|-------------------------------------9-9-9-9-9-9-|
D|-4-4-4-4-4-4-4-4-4-4-4-4-4-4-4-4-4-4-9-9-9-9-9-9-|
A|-4-4-4-4-4-4-4-4-4-4-4-4-4-4-4-4-4-4-7-7-7-7-7-7-|
D|-4-4-4-4-4-4-4-4-4-4-4-4-4-4-4-4-4-4-------------|
Verse(1st play nothing After a while play this)
e|---------------------------------------------------|
B|---------------------------------------------------|
G|---------9-9-9-6-6-6-6-6-6-6-6-6-9-9-9-9-9-9-9-9-9-|
D|-x-4-4-4-9-9-9-6-6-6-6-6-6-6-6-6-9-9-9-9-9-9-9-9-9-|
A|-x-4-4-4-7-7-7-4-4-4-4-4-4-4-4-4-7-7-7-7-7-7-7-7-7-|
D|-x-4-4-4-------------------------------------------|
                 (Not correct strumming)(vary up and downstrokes)
Chorus
e|-------------------------------------|
B|-------------------------------------|
G|---------6---------------------------|
D|-4-4-4-4-6---------------------------|
A|-4-4-4-4-4-2-2-2-2-0-0-2-0-0-2-0-0-0-|
D|-4-4-4-4---2-2-2-2p0-0-2p0-0-2p0-0-0-|
Bridge after Chorus
e|-----------------------------------|
B|-----------------------------------|
G|-----------------------------------|
D|-4-4-4-4-4-0-4-4-4-4-4-0-----------|
A|-4-4-4-4-4-0-4-4-4-4-4-0-----------|
D|-4-4-4-4-4-0-4-4-4-4-4-0(let Ring)-|
After 2nd Chorus
e|----------------------------|
B|----------------------------|
G|----------------------------|
D|-4-4-4-0-0-0----------------|
A|-4-4-4-0-0-0----------------|
D|-4-4-4-0-0-0----------------|
outro
e|----------------------------|
B|----------------------------|
G|----------------------------|
D|-6h7p6-2/6-6h7/11\6---------|
A|----------------------------|
D|----------------------------|

     
Добавлено: 29.07.2013
Другие материалы по этой песне:

Страница создана 08.03.2012
http://primanota.ru/vex-red/the-closest-chords.htm
Привет, Гость.
Предлагаем пройти революционный курс по гитаре.
Подарок от PrimaNota.Ru, забирай!