PrimaNota.ru - самый крупный в мире бесплатный архив песенных текстов, аккордов, табулатур и нот


Veto - You Cant Afford It - текст песни, таба, видео

Регистрация Запомнить меня
Войти через:  Facebook Google Twitter Vk Yandex Mail.ru

Veto - You Cant Afford It - текст песни, таба, видео

Печатать
Просмотров: 134
the song is played with a bit soft disortion sound with a bit of delay.
Tuning: Drop D.


intro:
e----------------------------------------|
b----------------------------------------|
g----------------------------------------|
d--3--3-3-3--2--2-2-2--3--3-3-5--3-2-2-0-|
a-0--0-0-0--0--0-0-0--0--0-0-0--0-0-0-0--|
d----------------------------------------|

next part is at 0:42
i havn't counted how many notes he plays because he plays it so fast. you must figure it out
your self :).

e--------------------------------------|
b--------------------------------------|
g--------------------------------------|   x2
d--------------------------------------|
a-5-5-5-5-5-5-5-5-5-5-5-5-5-5-5-5-5----|
d-5-5-5-5-5-5-5-5-5-5-5-5-5-5-5-5-5----|

this part is the chorus. there's to ways to play it, that sounds right. i'll write both of them.
again the number of strokes is not accurate, you must figure out the timing.

e---------------------------------------------------------------------|
b---------------------------------------------------------------------|
g---------------------------------------------------------------------|
d---------------------------------------------------------------------|
a-5-5-5-5-5-5-5-5-5-3-3-3-3-3-3-3-8-8-8-8-8-8-8-8-8-5-5-5-5-5-5-5-5-5-|
d-5-5-5-5-5-5-5-5-5-3-3-3-3-3-3-3-8-8-8-8-8-8-8-8-8-5-5-5-5-5-5-5-5-5-|

e------------------------------------------------------------------------|
b------------------------------------------------------------------------|
g------------------------------------------------------------------------|
d-7-7-7-7-7-7-7-7-7-5-5-5-5-5-5-5-10-10-10-10-10-10-10-10-10-7-7-7-7-7-7-|
a-5-5-5-5-5-5-5-5-5-3-3-3-3-3-3-3-8--8--8--8--8--8--8--8--8--5-5-5-5-5-5-|
d------------------------------------------------------------------------|

e-----------------------------------|
b-----------------------------------|
g-----------------------------------|
d-----------------------------------|
a-5-5-5-5-5-5-5-5-5-5-5-5-5-5-5-5-5-|
d-5-5-5-5-5-5-5-5-5-5-5-5-5-5-5-5-5-|


e------------------------------------------------------------------------|
b------------------------------------------------------------------------|
g------------------------------------------------------------------------|
d-7-7-7-7-7-7-7-7-7-5-5-5-5-5-5-5-10-10-10-10-10-10-10-10-10-7-7-7-7-7-7-|
a-5-5-5-5-5-5-5-5-5-3-3-3-3-3-3-3-8--8--8--8--8--8--8--8--8--5-5-5-5-5-5-|
d------------------------------------------------------------------------|

e----------------------------------------|
b----------------------------------------|
g----------------------------------------|
d--3--3-3-3--2--2-2-2--3--3-3-5--3-2-2-0-|
a-0--0-0-0--0--0-0-0--0--0-0-0--0-0-0-0--|
d----------------------------------------|
Добавлено: 18.05.2012
Другие материалы по этой песне:
  • Аккорды и текст

Страница создана 18.05.2012
http://primanota.ru/veto/you-cant-afford-it-chords.htm
Привет, Гость.
Предлагаем пройти революционный курс по гитаре.
Подарок от PrimaNota.Ru, забирай!