PrimaNota.ru - самый крупный в мире бесплатный архив песенных текстов, аккордов, табулатур и нот


Vete A La Versh - El Chancro Voraz - таба, видео

Регистрация Запомнить меня
Войти через:  Facebook Google Twitter Vk Yandex Mail.ru

Vete A La Versh - El Chancro Voraz - таба, видео

Печатать
Просмотров: 111
Уроки эстрадного вокала в Санкт-Петербурге
 Hola me llamo arturo no hablo ingles pero aqui les dejo la tablatura de el
chancro voraz de vete a la versh la saque 100) a oido

~       - vibrato
p       - pull off
h       - hammer on
\       - slide down
/       - slide up

   intro x2
e/--------------3----|-----------2/3-|-------------0--------0-----3----|
b/---------0---------|-------3-------|---------1------1---------0------|
g/-------0---0-----0-|-----2---2-----|-------0---0-------0----0--------|
d/-------------------|--0------------|---------------------------------|
a/-------------------|---------------|--3------------------------------|
e/--3----------------|---------------|---------------------------------|


Ya es de noche y no lo entiendo
mi huevo se empieza a calentar.

Una comezón del Infierno
creo que procederé a rascar Oh si.
Y levanto la sábana
me agarro la banana,
la hago a un ladito
para poder observar
Es un ente muy peludo
doy un grito muy agudo
pues parece que mi suerte
se acaba de terminar...
Soy víctima de un monstruo mortal,
el chancro voraz

 acordes

e/----|---2----|--3-------------------------|
b/--1-|---3----|--4-------------------------|
g/----|---2----|--3-------------------------|
d/--2-|--------|--5-------------------------|
a/--3-|--------|--5-------------------------|
e/----|--------|--3-------------------------|
Добавлено: 17.04.2012
Другие материалы по этой песне:
  • Аккорды и текст

Страница создана 17.04.2012
http://primanota.ru/vete-a-la-versh/el-chancro-voraz-chords.htm
Привет, Гость.
Предлагаем пройти революционный курс по гитаре.
Подарок от PrimaNota.Ru, забирай!