PrimaNota.ru - самый крупный в мире бесплатный архив песенных текстов, аккордов, табулатур и нот


Vesa-matti Loiri - Varpunen Jouluaamuna - таба, видео

Регистрация Запомнить меня
Войти через:  Facebook Google Twitter Vk Yandex Mail.ru

Vesa-matti Loiri - Varpunen Jouluaamuna - таба, видео

Печатать
Просмотров: 105
-------------------------------------------------------------------------------
                 Varpunen jouluaamuna - Vesa-Matti Loiri
-------------------------------------------------------------------------------
Tabbed by: SebuPeba
E-mail: severi377@gmail.com

Tuning: Standard

https://www.youtube.com/watch?v=7-hs_L3AYXk

e|---------------------------------------------------------------------------|
B|---------------------------------------------------------------------------|
G|-9-8-6-8-9-13-8------------------------------------------------------------|
D|----------------6-----6-11-9-7-9-11-14-9-----------------------------------|
A|---------------------------------------------------------------------------|
E|---------------------------------------------------------------------------|

e|---------------------------------------------------------------------------|
B|---------------------------------------------------------------------------|
G|-14-13-11-13-14-18-13--------------------13--------------------------------|
D|----------------------11-----11-13-14-16----11-----------------------------|
A|---------------------------------------------------------------------------|
E|---------------------------------------------------------------------------|
Добавлено: 22.06.2015
Другие материалы по этой песне:
  • Аккорды и текст

Страница создана 22.06.2015
http://primanota.ru/vesa-matti-loiri/varpunen-jouluaamuna-chords.htm
Привет, Гость.
Предлагаем пройти революционный курс по гитаре.
Подарок от PrimaNota.Ru, забирай!