PrimaNota.ru - самый крупный в мире бесплатный архив песенных текстов, аккордов, табулатур и нот


Verve Pipe - Wonderful Waste - текст песни, таба, видео

Регистрация Запомнить меня
Войти через:  Facebook Google Twitter Vk Yandex Mail.ru

Verve Pipe - Wonderful Waste - текст песни, таба, видео

Печатать
Просмотров: 91
The Verve Pipe
Wonderful Waste

Tabbed by: Juan David Torres
jdtporgy@hotmail.com

COLOMBIA / BOGOTA


Standart Tuning
(EADGBe)

RIFF 1

Guitar 1
Intro (Clean)        x13
e|-------------0--------
B|-------2--------0-----
G|---------3--------3---
D|----4------4--------4-
A|----------------------
E|----------------------

Guitar 2 (Distortion)
B5
e|--------------------
B|--------------------
G|--------------------
D|-9------------------
A|-9------------------
E|-7------------------

Riff 2

Guitar 1
(Clean)      x7
e|-------------0--------
B|-------2--------0-----
G|---------3--------3---
D|----4------4--------4-
A|----------------------
E|----------------------


Guitar 2 (Distortion)

E5
e|------------------------------
B|------------------------------
G|--9-9-9-9---------------------
D|--9-9-9-9--9-9-9-9-9-9-9-9----
A|--7-7-7-7--9-9-9-9-9-9-9-9----
E|-----------7-7-7-7-7-7-7-7----



Guitar 1
(Clean)        x7
e|-------------0--------
B|-------2--------0-----
G|---------3--------3---
D|----4------4--------4-
A|----------------------
E|----------------------


Guitar 2 (Distortion)

E5
e|------------------------------
B|------------------------------
G|--9-9-9-9---------------------
D|--9-9-9-9--9-9-9-9-9-9-9-9----
A|--7-7-7-7--9-9-9-9-9-9-9-9----
E|-----------7-7-7-7-7-7-7-7----


Guitar 1 and 2 (Distortion)


E5       B5
e|------------------------------
B|------------------------------
G|--9-9-9-9---------------------
D|--9-9-9-9--9-9-9-9-9-9-9-9----
A|--7-7-7-7--9-9-9-9-9-9-9-9----
E|-----------7-7-7-7-7-7-7-7----


E5                         B5
e|--------------------------------------------------------
B|--------------------------------------------------------
G|--9-9-9-9-9-9-9-9-9-9-9-9-9-----------------------------
D|--9-9-9-9-9-9-9-9-9-9-9-9-9-9-9-9-9-9-9-9-9-9-9-9-9-9---
A|--7-7-7-7-7-7-7-7-7-7-7-7-7-9-9-9-9-9-9-9-9-9-9-9-9-9---
E|----------------------------7-7-7-7-7-7-7-7-7-7-7-7-7---


E5           B5        x5
e|---------------------------
B|---------------------------
G|--9-9-9-9-9----------------
D|--9-9-9-9-9--9-9-9-9-9-9---
A|--7-7-7-7-7--9-9-9-9-9-9---
E|-------------7-7-7-7-7-7---


x2
e|------------------
B|------------------
G|------------------
D|------1-2---------
A|--------------1-2-
E|--0-0-----0-0-----


E5           B5        x5
e|---------------------------
B|---------------------------
G|--9-9-9-9-9----------------
D|--9-9-9-9-9--9-9-9-9-9-9---
A|--7-7-7-7-7--9-9-9-9-9-9---
E|-------------7-7-7-7-7-7---


x2 (second time x4)
e|------------------
B|------------------
G|------------------
D|------1-2---------
A|--------------1-2-
E|--0-0-----0-0-----

REPEAT RIFF 2 ONE MORE TIME
(im working in the solo part)

with palm mute                                              x4 (PM)
B5              G5              D5              A5
e|-----------------------------------------------------------------
B|-----------------------------------------------------------------
G|---------------------------------7-7-7-7-7-7-7-7-----------------
D|-9-9-9-9-9-9-9-9-5-5-5-5-5-5-5-5-7-7-7-7-7-7-7-7-7-7-7-7-7-7-7-7-
A|-9-9-9-9-9-9-9-9-5-5-5-5-5-5-5-5-5-5-5-5-5-5-5-5-7-7-7-7-7-7-7-7-
E|-7-7-7-7-7-7-7-7-3-3-3-3-3-3-3-3-----------------5-5-5-5-5-5-5-5-

pm ............................................................


play some times to finish the song
B5              G5              D5              A5
e|-----------------------------------------------------------------
B|-----------------------------------------------------------------
G|---------------------------------7-7-7-7-7-7-7-7-----------------
D|-9-9-9-9-9-9-9-9-5-5-5-5-5-5-5-5-7-7-7-7-7-7-7-7-7-7-7-7-7-7-7-7-
A|-9-9-9-9-9-9-9-9-5-5-5-5-5-5-5-5-5-5-5-5-5-5-5-5-7-7-7-7-7-7-7-7-
E|-7-7-7-7-7-7-7-7-3-3-3-3-3-3-3-3-----------------5-5-5-5-5-5-5-5-

Wonderful Waste
Добавлено: 16.04.2012
Другие материалы по этой песне:
  • Аккорды и текст

Страница создана 16.04.2012
http://primanota.ru/verve-pipe/wonderful-waste-chords.htm
Привет, Гость.
Предлагаем пройти революционный курс по гитаре.
Подарок от PrimaNota.Ru, забирай!