PrimaNota.ru - самый крупный в мире бесплатный архив песенных текстов, аккордов, табулатур и нот


Veruca Salt - Sundown - текст песни, таба, видео

Регистрация Запомнить меня
Войти через:  Facebook Google Twitter Vk Yandex Mail.ru

Veruca Salt - Sundown - текст песни, таба, видео

Печатать
Просмотров: 87
-------------------------------------------------------------------------------
                             Sundown - Veruca Salt
-------------------------------------------------------------------------------
Tabbed by: TatumHalla
E-mail: halla.tatum@gmail.com

Tuning: Standard

I'm not the best at tabbing and this is all done by ear 
so listen to the song to figure out the strumming and timing

Verse
  (Louise)
e|---------------------------------------------------------------------------|
B|--6--66666-6--666666-------------------------------------------------------|
G|--7--77777-7--777777-7--77777-4--444444------------------------------------|
D|--7--77777-7--777777-8--88888-5--555555------------------------------------|
A|--5--55555-5--555555-8--88888-5--555555------------------------------------|
E|---------------------6--66666-3--333333------------------------------------|

  (Nina)
e|---------------------------------------------------------------------------|
B|---------------------------------------------------------------------------|
G|--10--1010101010-11--111111111111--6--66666-3--333333----------------------|
D|--11--1111111111-12--121212121212--7--77777-4--444444----------------------|
A|--11--1111111111-12--121212121212--7--77777-4--444444----------------------|
E|--9---9-9-9-9-9--10--101010101010--5--55555-2--222222----------------------|

Chorus 
e|---------------------------------------------------------------------------|
B|---------------------------------------------------------------------------|
G|-66--3-333-66--9-999-------------------------------------------------------|
D|-99--4-444-77--9-999-------------------------------------------------------|
A|-99--4-444-77--9-999-------------------------------------------------------|
E|-77--2-222-55--7-777-------------------------------------------------------|


"Falling down..."
e|---------------------------------------------------------------------------|
B|---------------------------------------------------------------------------|
G|-88--3-333-----------------------------------------------------------------|
D|-99--4-444-----------------------------------------------------------------|
A|-99--4-444-----------------------------------------------------------------|
E|-77--2-222-----------------------------------------------------------------|


 (1:39)
e|---------------------------------------------------------------------------|
B|---------------------------------------------------------------------------|
G|-9--9-9--3333--------------------------------------------------------------|
D|-10-1010-4444--------------------------------------------------------------|
A|-10-1010-4444--------------------------------------------------------------|
E|-8--8-8--2222--------------------------------------------------------------|


"Goodnight moon, goodnight mush...."
e|---------------------------------------------------------------------------|
B|-6--66666------------------------------------------------------------------|
G|-7--77777-6--666666--8--88888-9--9-9--7--77--------------------------------|
D|-7--77777-7--777777--9--99999-10-1010-8--88--------------------------------|
A|-5--55555-7--777777--9--99999-10-1010-8--88--------------------------------|
E|----------5--555555--7--77777-8--8-8--6--66--------------------------------|




Добавлено: 14.11.2015
Другие материалы по этой песне:
  • Аккорды и текст

Страница создана 23.04.2012
http://primanota.ru/veruca-salt/sundown-chords.htm
Привет, Гость.
Предлагаем пройти революционный курс по гитаре.
Подарок от PrimaNota.Ru, забирай!