PrimaNota.ru - самый крупный в мире бесплатный архив песенных текстов, аккордов, табулатур и нот


Veruca Salt - The Gospel According To Saint Me - таба, видео

Регистрация Запомнить меня
Войти через:  Facebook Google Twitter Vk Yandex Mail.ru

Veruca Salt - The Gospel According To Saint Me - таба, видео

Печатать
Просмотров: 104
THE GOSPEL ACCORDING TO SAINT ME - Veruca Salt

Guitar TAB
by Matty Jay (mattyjay@mattyjay.com)
guitarist for Alyce Hart (www.alycehart.com)


Key of B-major

Intro:
                                    play 4x
e----------------------------------||
B----------------------------------||
G---------------------------------o||
D--7h--9---9---7---9---9----------o||
A--7h--9---9---7---9---9-----------||
E--7-------------------------------||


Verse 1:

   B5                                          E5/B         play 2x
e---------------------------------|--------------------------------||
B---------------------------------|--------------------------------||
G---------------------------------|------------9-------9---9---9--o||
D-7-h-9---9---7---9---7-----------|------------9-------9---9---9--o||
A-7-h-9---9---7---9---7--/9-\-5---|5-/-7---7---7-------7---7---7---||
E-7----------------------/9-\-5---|5-/-7---7---7-------7---7---7---||

   A5                               D5/A
e---------------------------------|--------------------------------|
B---------------------------------|--------------------------------|
G---------------------------------|7---7---7---7---7---7---7---7---|
D-7---7---7---7---7---7---7---7---|7---7---7---7---7---7---7---7---|
A-7---7---7---7---7---7---7---7---|5---5---5---5---5---5---5---5---|
E-5---5---5---5---5---5---5---5---|5---5---5---5---5---5---5---5---|

   B5                                          E5/B         play 3x
e---------------------------------|--------------------------------||
B---------------------------------|--------------------------------||
G---------------------------------|------------9-------9---9---9--o||
D-7-h-9---9---7---9---7-----------|------------9-------9---9---9--o||
A-7-h-9---9---7---9---7--/9-\-5---|5-/-7---7---7-------7---7---7---||
E-7----------------------/9-\-5---|5-/-7---7---7-------7---7---7---||

   A5                               G5
e---------------------------------|--------------------------------|
B---------------------------------|--------------------------------|
G---------------------------------|--------------------------------|
D-7---7---7---7---7---7---7---7---|5---5---5---5---5---5---5---5---|
A-7---7---7---7---7---7---7---7---|5---5---5---5---5---5---5---5---|
E-5---5---5---5---5---5---5---5---|3---3---3---3---3---3---3---3---|


Chorus 1:  (play 2x)

  G5     D5                     
e---------------------------------|--------------------------------|
B---------------------------------|--------------------------------|
G---------7---7---7---7---7---7---|--------7---7---7---7---7---7---|
D-5-------7---7---7---7---7---7---|-5------7---7---7---7---7---7---|
A-5-------5---5---5---5---5---5---|-5------5---5---5---5---5---5---|
E-3-------------------------------|-3------------------------------|

  A5      E5
e---------------------------------|--------------------------------|
B---------------------------------|--------------------------------|
G---------9---9---9---9---9---9---|--------9---9---9---9---9---9---|
D-7-------9---9---9---9---9---9---|-7------9---9---9---9---9---9---|
A-7-------7---7---7---7---7---7---|-7------7---7---7---7---7---7---|
E-5-------------------------------|-5------------------------------|


Intro again:

                                    play 4x
e----------------------------------||
B----------------------------------||
G---------------------------------o||
D--7h--9---9---7---9---9----------o||
A--7h--9---9---7---9---9-----------||
E--7-------------------------------||


Verse 2:

   B5                                          E5/B         play 2x
e---------------------------------|--------------------------------||
B---------------------------------|--------------------------------||
G---------------------------------|------------9-------9---9---9--o||
D-7-h-9---9---7---9---7-----------|------------9-------9---9---9--o||
A-7-h-9---9---7---9---7--/9-\-5---|5-/-7---7---7-------7---7---7---||
E-7----------------------/9-\-5---|5-/-7---7---7-------7---7---7---||

   A5                               D5/A
e---------------------------------|--------------------------------|
B---------------------------------|--------------------------------|
G---------------------------------|7---7---7---7---7---7---7---7---|
D-7---7---7---7---7---7---7---7---|7---7---7---7---7---7---7---7---|
A-7---7---7---7---7---7---7---7---|5---5---5---5---5---5---5---5---|
E-5---5---5---5---5---5---5---5---|5---5---5---5---5---5---5---5---|

e---------------------------------|--------------------------------|
B---------------------------------|--------------------------------|
G---------------------------------|--------------------------------|
D--7-h-9---9---7---9---9----------|--7-h-9---9---7---9---9---------|
A--7-h-9---9---7---9---9----------|--7-h-9---9---7---9---9---------|
E--7------------------------------|--7-----------------------------|

   B5                                          E5/B         play 2x
e---------------------------------|--------------------------------||
B---------------------------------|--------------------------------||
G---------------------------------|------------9-------9---9---9--o||
D-7-h-9---9---7---9---7-----------|------------9-------9---9---9--o||
A-7-h-9---9---7---9---7--/9-\-5---|5-/-7---7---7-------7---7---7---||
E-7----------------------/9-\-5---|5-/-7---7---7-------7---7---7---||

   A5                               G5
e---------------------------------|--------------------------------|
B---------------------------------|--------------------------------|
G---------------------------------|--------------------------------|
D-7---7---7---7---7---7---7---7---|5---5---5---5---5---5---5---5---|
A-7---7---7---7---7---7---7---7---|5---5---5---5---5---5---5---5---|
E-5---5---5---5---5---5---5---5---|3---3---3---3---3---3---3---3---|


Chorus 2: (play 3x)

  G5     D5                     
e---------------------------------|--------------------------------|
B---------------------------------|--------------------------------|
G---------7---7---7---7---7---7---|--------7---7---7---7---7---7---|
D-5-------7---7---7---7---7---7---|-5------7---7---7---7---7---7---|
A-5-------5---5---5---5---5---5---|-5------5---5---5---5---5---5---|
E-3-------------------------------|-3------------------------------|

  A5      E5
e---------------------------------|--------------------------------|
B---------------------------------|--------------------------------|
G---------9---9---9---9---9---9---|--------9---9---9---9---9---9---|
D-7-------9---9---9---9---9---9---|-7------9---9---9---9---9---9---|
A-7-------7---7---7---7---7---7---|-7------7---7---7---7---7---7---|
E-5-------------------------------|-5------------------------------|


Intro again:

                                    play 4x
e----------------------------------||
B----------------------------------||
G---------------------------------o||
D--7h--9---9---7---9---9----------o||
A--7h--9---9---7---9---9-----------||
E--7-------------------------------||


Bridge:

   A5            E5                 B5                      (play 3x)
e---------------------------------|--------------------------------||
B---------------------------------|--------------------------------||
G--------------9---9---9---9------|-------------------------------o||
D--7---7---7---9---9---9---9---9--|-9---9---9---9---9---9---9---9-o||
A--7---7---7---7---7---7---7---9--|-9---9---9---9---9---9---9---9--||
E--5---5---5---0---0---0---0---7--|-7---7---7---7---7---7---7---7--||

   A5                               G5
e---------------------------------|--------------------------------|
B---------------------------------|--------------------------------|
G---------------------------------|--------------------------------|
D-7---7---7---7---7---7---7---7---|5---5---5---5---5---5---5---5---|
A-7---7---7---7---7---7---7---7---|5---5---5---5---5---5---5---5---|
E-5---5---5---5---5---5---5---5---|3---3---3---3---3---3---3---3---|


Last Chorus:  (play 3x)

  G5     D5                     
e---------------------------------|--------------------------------|
B---------------------------------|--------------------------------|
G---------7---7---7---7---7---7---|--------7---7---7---7---7---7---|
D-5-------7---7---7---7---7---7---|-5------7---7---7---7---7---7---|
A-5-------5---5---5---5---5---5---|-5------5---5---5---5---5---5---|
E-3-------------------------------|-3------------------------------|

  A5      E5
e---------------------------------|--------------------------------|
B---------------------------------|--------------------------------|
G---------9---9---9---9---9---9---|--------9---9---9---9---9---9---|
D-7-------9---9---9---9---9---9---|-7------9---9---9---9---9---9---|
A-7-------7---7---7---7---7---7---|-7------7---7---7---7---7---7---|
E-5-------------------------------|-5------------------------------|


Outro:

                                    play 4x
e----------------------------------||
B----------------------------------||
G---------------------------------o||
D--7h--9---9---7---9---9----------o||
A--7h--9---9---7---9---9-----------||
E--7-------------------------------||

   B5                                          E5/B         play 8x
e---------------------------------|--------------------------------||
B---------------------------------|--------------------------------||
G---------------------------------|------------9-------9---9---9--o||
D-7-h-9---9---7---9---7-----------|------------9-------9---9---9--o||
A-7-h-9---9---7---9---7--/9-\-5---|5-/-7---7---7-------7---7---7---||
E-7----------------------/9-\-5---|5-/-7---7---7-------7---7---7---||

      B                   (play 3x) 
e--------------------------------||-------------------------------||
B--------------------------------||-------------------------------||
G-----8---8---8---8---8---8-----o||----8---8---8---8--------------||
D-----9---9---9---9---9---9-----o||----9---9---9---9--------------||
A-----9---9---9---9---9---9------||----9---9---9---9--------------||
E-----7---7---7---7---7---7------||----7---7---7---7--------------||


C'est finis!

************************************
Добавлено: 14.11.2015
Другие материалы по этой песне:
  • Аккорды и текст

Страница создана 14.11.2015
http://primanota.ru/veruca-salt/gospel-according-to-saint-me-chords.htm
Привет, Гость.
Предлагаем пройти революционный курс по гитаре.
Подарок от PrimaNota.Ru, забирай!