PrimaNota.ru - самый крупный в мире бесплатный архив песенных текстов, аккордов, табулатур и нот


Veruca Salt - Circular Trend - текст песни, таба, видео

Регистрация Запомнить меня
Войти через:  Facebook Google Twitter Vk Yandex Mail.ru

Veruca Salt - Circular Trend - текст песни, таба, видео

Печатать
Просмотров: 80
----------------------------------------------------------------------------
                             "CIRCULAR TREND" - Veruca Salt
----------------------------------------------------------------------------
Tabbed by: Joe
E-mail:joeghartman@verizon.net

Tuning: Drop D
This is one of my favorite songs by Veruca Salt and have been dying to figure it out. I 
have the concept down,but need help perfecting it. Any input please.

VERSE:

e|--------------------------------------------------------------------------|
B|--------------------------------------------------------------------------|
G|--------------------------------------------------------------------------|
D|--55--5--5--5-----3-----0-------------------------------------------------|
A|--55--5--5--5-----3-----0-------------------------------------------------|
D|--55--5--5--5-----3-----0-------------------------------------------------|


Chorus (Guitar 1) (first chorus only plays the first part and jumps back into the verse 
// the rest is played after the second verse)
e|--------------------------------------------------------------------------|
B|--------------------------------------------------------------------------|
G|--------------------------------------------------------------------------|
D|---3333----5555----0000--x3----3---5---8--10------------------------------|
A|---3333----5555----0000--------3---5---8--10------------------------------|
D|---3333----5555----0000--------3---5---8--10------------------------------|

   "Do I deserve this..."
e|-------------------------------------------------------------------------|
B|-------------------------------------------------------------------------|
G|-------------------------------------------------------------------------|
D|--1---3----5--5--5--5----------------------------------------------------|
A|--1---3----5--5--5--5----------------------------------------------------|
D|--1---3----5--5--5--5----------------------------------------------------|

Guitar 2
e|--------------------------------------------------------------------------|
B|--------------------------------------------------------------------------|
G|--7----7-------7----------------------------7-----7-----7-----------------|
D|-----5-----5------7---(repeats a lot)----------4-----4------4-------------|
A|--------------------------------------------------------------------------|
D|--------------------------------------------------------------------------|

Bridge:
e|----------------------------------------------------------------------------|
B|----------------------------------------------------------------------------|
G|-----7777-------------------------------------------------------------------|
D|-----7777-------0----3--5---3-----------------------------------------------|
A|-----5555-------0----3--5---3-----------------------------------------------|
D|----------------0----3--5---3-----------------------------------------------|

e|--------------------------------------------------------------------------|
B|--------------------------------------------------------------------------|
G|------5----------------10---------------7---------------7-----------------|
D|---5-----5---------10-------10-------7-----7--------7--------7------------|
A|-3--------------8-----------------5-------------5-------------------------|
D|--------------------------------------------------------------------------|


End is similar to verse / chorus
e|--------------------------------------------------------------------------|
B|--------------------------------------------------------------------------|
G|--------------------------------------------------------------------------|
D|--5----8-----10--------1-------3------5-5-5-5-----------------------------|
A|--5----8-----10--------1-------3------5-5-5-5-----------------------------|
D|--5----8-----10--------1-------3------5-5-5-5-----------------------------|




************************************

| /   slide up
| \   slide down
| h   hammer-on
| p   pull-off
| ~   vibrato
| +   harmonic
| x   Mute note
| b   Bend
| pb  Pre-bend
| br  Bend release
| pbr Pre-bend release
| brb Bend release bend

************************************
Добавлено: 14.08.2013
Другие материалы по этой песне:
  • Аккорды и текст

Страница создана 29.03.2012
http://primanota.ru/veruca-salt/circular-trend-chords.htm
Привет, Гость.
Предлагаем пройти революционный курс по гитаре.
Подарок от PrimaNota.Ru, забирай!