PrimaNota.ru - самый крупный в мире бесплатный архив песенных текстов, аккордов, табулатур и нот


Vertigo - Virus De Amor - аккорды и текст, видео

Регистрация Запомнить меня
Войти через:  Facebook Google Twitter Vk Yandex Mail.ru

Vertigo - Virus De Amor - аккорды и текст, видео

Печатать
Просмотров: 46
Virus De Amor
Vertigo
Intro: Am - G - F
  |---Am---| |---Am/G---| |---Am/F--|
e|---------------------------------------0------|
B|------0-1.-------0-----------0-1.----3---3----|
G|-------------------2.------2---------------2--|
D|----2----------2------------------------------|
A|-0--------------------------------------------|
E|------------3------------1--------------------|


Am                   G            F            (Riff 1)
Como la fuerza de una gran tempestad llegaste sin anunciar
Am                  G
como aquel niño que busca libertad
 F                  E
nada te detiene, solo queda escapar
Am                  G                  F
como la lluvia que apacigua el calor, como los ¿......?
Am                   G
como un tornado, causas mucho pavor
 F                    E
nada te detiene, solo arrastras dolor.


*CORO*
        Am                    F
Haz infectado mi ser, haz infectado mis sentidos,
      C          G
mi sistema operacional
 Dm                       F
no hay vacuna que pueda evitar tu infección
  G                      E
mas no busco cura, sólo imprégnate en mi
        Am                    F
Haz infectado mi ser, haz infectado mis sentidos,
      C          G
mi sistema operacional
  Dm                  F
me atrapaste con tu telaraña fatal
  G                  E
no quiero escapar de ti,
                 Am  F - G                     Am   F - G
dame tu virus de amor...        dame tu virus de amor.


*Intro*


Am                    G
Es como un fuego, no se puede apagar
F                  (Riff 2)
es como sed sin saciar
Am                     G            (Riff 3)
es un volcán que está muy cerca a estallar
  F                        E
gritas por las noches, nadie puede escuchar
 Am                  G
cómo saber si es sueño o realidad,
 F
cómo entender la señal
 Am                  G
cómo aceptar, no existe otra verdad
 F                  E
nada te detiene, dime qué voy a hacer.


*CORO*


SOLO:  (Am - F - C - G - Dm - F - G - E)
e|---------------------------------------3-3/5-3..--
B|-3/5.-5---------------------5.-5.--3/5------------
G|--------7-5-----------5-5/7-----------------------
D|------------4/5.--5/7-----------------------------
A|--------------------------------------------------
E|--------------------------------------------------

e|----------------------------------------------
B|------------------------------------8---------
G|-----5-7--/7-5---5.------5-7-7/9---9-------
D|-5/7--------------7-----5/7-------------9/10--
A|----------------------------------------------
E|----------------------------------------------

e|---------------------10-12..--|
B|-----8---8/10--10-13----------|
G|-7/9---9----------------------|
D|------------------------------|
A|------------------------------|
E|------------------------------|


*CORO*


            Am
Dame... dame...
F - G                  Am    F - G      Am
     dame tu virus de amor...         (Riff 4)


*RIFFS*
-------

Riff 1
e|-------------|
B|-------------|
G|-------5-----|
D|-----5---7.--|
A|-5/7---------|
E|-------------|

Riff 2
e|-------8------|
B|-----8---10.--|
G|-7/9----------|
D|--------------|
A|--------------|
E|--------------|

Riff 3
e|-8-7----------|
B|-----8-8/10.--|
G|--------------|
D|--------------|
A|--------------|
E|--------------|

Riff 4
e|-----8.------|
B|-5/8----10.--|
G|-------------|
D|-------------|
A|-------------|
E|-------------|


                 ------
              º-|¤    ¤|-º
              º-| LuïS |-º
              º-|¤    ¤|-º
                 \    /
                |  |
      ·===========================·
      | luis_6cuerdas@ |
      ·===========================·


*Si hubiese algún error o alguna duda, escribe al mail o avisa por MSN*
Добавлено: 04.05.2016
Другие материалы по этой песне:
  • Аккорды и текст

Страница создана 04.05.2016
http://primanota.ru/vertigo/virus-de-amor-chords.htm
Привет, Гость.
Предлагаем пройти революционный курс по гитаре.
Подарок от PrimaNota.Ru, забирай!