PrimaNota.ru - самый крупный в мире бесплатный архив песенных текстов, аккордов, табулатур и нот


Vertical Horizon - We Are - аккорды и текст, таба, видео

Регистрация Запомнить меня
Войти через:  Facebook Google Twitter Vk Yandex Mail.ru

Vertical Horizon - We Are - аккорды и текст, таба, видео

Печатать
Просмотров: 163
We Are
Vertical Horizon
		   Song       : We Are (Matthew Scannell)
Artist     : Vertical Horizon
Album      : Everything You Want
By         : Jurgen Krombeen (valkenaer@hotmail.com)

Last update: February 14th, 2001


 Bmadd4 x24430  B5    xxx402
 A      x02220  Asus2 xxx200
 Em     022000  Dm7 xxx705
 G5     3x0033  E5    xxx907


Tune guitar down 1/2 step

 [intro and chorus riff]

      Bmadd9          A               Em

Eb |--0-0-0-0-0-0-0-0-0-0-0-0-0-0-0-0--------------------------------------------
Bb |--3-3-3-3-3-3-3-3-2-2-2-2-2-2-2-2-0-0-0-0-0-0-0-0-3-3-3-3-3-3-3-3------------
Gb |--4-4-4-4-4-4-4-4-2-2-2-2-2-2-2-2-0-0-0-0-0-0-0-0-0-0-0-0-0-0-0-0------------
Db |--4-4-4-4-4-4-4-4-2-2-2-2-2-2-2-2-2-2-2-2-2-2-2-2-0-0-0-0-0-0-0-0------------
Ab |--2-2-2-2-2-2-2-2-0-0-0-0-0-0-0-0-2-2-2-2-2-2-2-2-x-x-x-x-x-x-x-x------------
Eb |----------------------------------0-0-0-0-0-0-0-0-3-3-3-3-3-3-3-3------------
      *       *       *       *       *       *       *       *


 [verse riff]

      B5    Asus2   Dm7             B5    Asus2   E5

Eb |------2-----0-----5-----5-----5-------2-----0-----7-----7-----7---------------
Bb |----0-----0---0-----0-----0-----0---0-----0---0-----0-----0-----0-------------
Gb |--4-----2-------7-----7-----7-----4-----2-------9-----9-----9-----------------
Db |------------------------------------------------------------------------------
Ab |------------------------------------------------------------------------------
Eb |------------------------------------------------------------------------------
      *       *       *       *       *       *       *       *


Take a listen through the window - take a lover on the radio
Ask her if she's got an answer - do you know?
Time enough to get a good one - though they never seem to get done
I am standing for a reason - do you know?


Cause I don't know how and I don't know where     We are     We are
And I don't why and I don't know if               We are     We are

Seven days and not a return - seven lives and not a thing learnt     
Добавлено: 23.08.2013
Другие материалы по этой песне:
  • Аккорды и текст

Страница создана 03.04.2012
http://primanota.ru/vertical-horizon/we-are-chords.htm
Привет, Гость.
Предлагаем пройти революционный курс по гитаре.
Подарок от PrimaNota.Ru, забирай!