PrimaNota.ru - самый крупный в мире бесплатный архив песенных текстов, аккордов, табулатур и нот


Vertical Horizon - All Is Said & Done - аккорды и текст, видео

Регистрация Запомнить меня
Войти через:  Facebook Google Twitter Vk Yandex Mail.ru

Vertical Horizon - All Is Said & Done - аккорды и текст, видео

Печатать
Просмотров: 121
All Is Said & Done
Vertical Horizon
Name: Mike M

Artist: Vertical Horizon
Title: All Is Said And Done

One of my favorite VH songs. I've looked everywhere for this tab to no avail so I did my 
best to come up with the chords on my own. Thanks for viewing, hope you enjoy...

capo 1st Fret
- all notes and chords are relative to the capo

Intro / Verse

Basically just back and forth played fast on the bottom two strings. Listen to the song 
for the rhythm.

E-|-3---------3----3----3---------3----3----3-------|
B-|------0-------------------0-------------------0--|
G-|-------------------------------------------------|
D-|-------------------------------------------------|
A-|-------------------------------------------------|
E-|-------------------------------------------------|


I need you to hear me,
I want you to feel this,
It should be clear as fear and plain as day.

I'm not going to bend now,
You're not going to break me,
You'll never be hard enough to scratch my face.

CHORD PROGRESSION (x2):

    Em  C/F  C  Gadd4  Fsus2/G  C7M/G     F

E-|-000--0---0----3------3-------3-3------1--|
B-|-000--1---1----3------6-------5-5------1--|
G-|-000--0---0----4------5-------4-4------2--|
D-|-222--3---2----5------3-------5-5------3--|
A-|-222--3---3----3------3-------3-3------3--|
E-|-000--1---x----3------3-------3-3------1--|


I wanted to feel you,
I tried to belong here,
With all of the ghosts and faded headlines.
But I couldn't read you,
You wouldn't let me,
You always pull away from the ones you can't define.


CHORD PROGRESSION (x1):

    Em  C/F  C  Gadd4  Fsus2/G  C7M/G    F

E-|-000--0---0----3------3-------3-3------1--|
B-|-000--1---1----3------6-------5-5------1--|
G-|-000--0---0----4------5-------4-4------2--|
D-|-222--3---2----5------3-------5-5------3--|
A-|-222--3---3----3------3-------3-3------3--|
E-|-000--1---x----3------3-------3-3------1--|

CHORUS:

    Cadd9  A7sus4  Am7   Cadd4

E-|---0------0------0------0--|
B-|---3------3------1------1--|
G-|---0------0------0------0--|
D-|---2------2------2------3--|
A-|---3------0------0------3--|
E-|---x------x------x------x--|


        Cadd9                  A7sus4
Are you tired of holding up the sky?

                     Am7
Of teaching birds to fly?

                       Cadd4
You've done it all your life.

               Cadd9                 A7sus4
Oh baby are you sad, when you see the sun?

                          Am7
'Cause then your not the brightest one,

                     Cadd4
When all is said and done,
Yeah honey, all is said and done.

REPEAT INTRO/VERSE

I need to move through this,
The waiting just kills me.
Whatever you do is on you, I'm washed clean.
No, don't be alarmed now the story's ending,
These aren't open arms, they're just waving you away.

REPEAT CHORUS

Are you tired of holding up the sky?
Of teaching birds to fly?
You've done it all your life.

Oh baby are you sad, when you see the sun?
You've never been the brightest one,
When all is said and done,
Yeah honey, all is said and done.
All is said and done.
Добавлено: 14.07.2013
Другие материалы по этой песне:
  • Аккорды и текст

Страница создана 14.07.2013
http://primanota.ru/vertical-horizon/all-is-said-and-done-chords.htm
Привет, Гость.
Предлагаем пройти революционный курс по гитаре.
Подарок от PrimaNota.Ru, забирай!