PrimaNota.ru - самый крупный в мире бесплатный архив песенных текстов, аккордов, табулатур и нот


Vertical Church Band - Opens Up The Heavens - таба, видео

Регистрация Запомнить меня
Войти через:  Facebook Google Twitter Vk Yandex Mail.ru

Vertical Church Band - Opens Up The Heavens - таба, видео

Печатать
Просмотров: 54
Новый альбом группы 'Черный Кузнец' по культовому сериалу 'Сверхъестественное'!
[Lead Intro]
E|----------------------------|
A|-9--9--9--7-5-5-5-5-5-5-5-5-|
D|-0--0--0--0-0-0-0-0-0-0-0-0-|  (x2)
G|-11-11-11-9-7-7-7-7-7-7-7-7-|
B|----------------------------|
E|----------------------------|

E|------------------------------------|
A|-9--9--9--7-10-10-10-10-10-10-10-10-|
D|-0--0--0--0-0--0--0--0--0--0--0--0--|  (x2)
G|-11-11-11-9-12-12-12-12-12-12-12-12-|
B|------------------------------------|
E|------------------------------------|

E|--------------|---|
A|-9--9--9--7-5-|-5-|
D|-0--0--0--0-0-|-0-|
G|-11-11-11-9-7-|-7-|
B|--------------|---|
E|--------------|---|

[Lead Verse]
E|----------|
A|----------|
D|----------|  (x2)
G|--7-7-7-7-|
B|-7-7-7-7--|
E|----------|

E|----------|
A|----------|
D|----------|  (x2)
G|--7-7-7-7-|
B|-8-8-8-8--|
E|----------|

E|-----------------|----------------|
A|-----------------|----------------|
D|-----------------|----------------|
G|-----------------|----------------|
B|-----------------|----------------|
E|-9-9-9-9-9-9-9-9-|-7-7-7-7-7-5-5-5|

E|-----------------|-------------------------|
A|-----------------|-------------------------|
D|-----------------|-------------------------|
G|-----------------|-------------------------|
B|-----------------|-------------------------|
E|-9-9-9-9-9-9-9-9-|-10-10-10-10-10-10-10-10-|

[Lead Chorus]
E|------------------|---------------------|
A|------------------|---------------------|
D|------------------|---------------------|  (x2)
G|------------------|---------------------|
B|---10--10--10--10-|---10--10-12--10--10-|
E|-10--10--10--10---|-10--10-----10--12---|

E|------------------|--------------|
A|------------------|--------------|
D|------------------|--------------|
G|------------------|--------------|
B|-12--12--12--12---|-10-10-10-10--|
E|---10--10--10--10-|---9--9--9--9-|

E|----------------------------| 
A|-5-5-5-5-5-5-5-9--9--9--7-5-|   
D|-0-0-0-0-0-0-0-0--0--0--0-0-|  (x2)
G|-7-7-7-7-7-7-7-11-11-11-9-7-|
B|----------------------------|
E|----------------------------|

E|---|
A|-5-|
D|-0-|
G|-7-|
B|---|
E|---|

[Lead Verse]
E|---------------------------------|-----------------------------------|-----------------------------------|
A|---------------------------------|-----------------------------------|-----------------------------------|
D|---------------------------------|-10--------------------------------|-10--------------------------------|
G|-7-7-7-7-7-7-7-7-7-7-7-7-7-7-5-7-|---7-7-7-7-7-7-7-7-7-7-7-7-7-7-5-7-|---7-7-7-7-7-7-7-7-7-7-7-7-7-7-7-7-|
B|---------------------------------|-----------------------------------|-----------------------------------|
E|---------------------------------|-----------------------------------|-----------------------------------|

E|---------------------------|-------------------------|
A|---------------------------|-------------------------|
D|---------------------------|-------------------------|
G|-7-7-7-7-7-7-7-7-----9-9-9-|-------------------------|
B|----------------8-8-7------|-7-7-7-7-7-7-7-7-7-7-7-7-|
E|---------------------------|-------------------------|

E|-----------------|-----------------|-----------------|-------------------------|
A|-----------------|-----------------|-----------------|-------------------------|
D|-----------------|-----------------|-----------------|-------------------------|
G|-----------------|-----------------|-----------------|-------------------------|
B|-----------------|-----------------|-----------------|-------------------------|
E|-9-9-9-9-9-9-9-9-|-7-7-7-7-7-5-5-5-|-9-9-9-9-9-9-9-9-|-10-10-10-10-10-10-10-10-|

[Lead Bridge]
E|--------------------------|---------------------|
A|--------------------------|---------------------|
D|-0--0--0--0--0---0--0--0--|-0--0--0--0----------| (x3)
G|----7--7--7------7--7--7--|----7--7--7----------|
B|----10-10-10-----10-10-10-|----10-10-10--10--10-|
E|--------------------------|-------------9--10---|

E|-------------------------|
A|-------------------------|
D|-0--0--0--0--0--0--0--0--|
G|-7--7--7--7--7--7--7--7--|
B|-10-10-10-10-10-10-10-10-|
E|-------------------------|
Добавлено: 27.05.2018
Другие материалы по этой песне:
  • Аккорды и текст

Страница создана 27.05.2018
http://primanota.ru/vertical-church-band/opens-up-heavens-chords.htm
Привет, Гость.
Предлагаем пройти революционный курс по гитаре.
Подарок от PrimaNota.Ru, забирай!