PrimaNota.ru - самый крупный в мире бесплатный архив песенных текстов, аккордов, табулатур и нот


Vertical Church Band - Call On The Name In E - таба, видео

Регистрация Запомнить меня
Войти через:  Facebook Google Twitter Vk Yandex Mail.ru

Vertical Church Band - Call On The Name In E - таба, видео

Печатать
Просмотров: 43
Новый альбом группы 'Черный Кузнец' по культовому сериалу 'Сверхъестественное'!
I run a double digital delay both effects levels turned up 100 percent 
with one quarter note and one dotted-eighth note for the Intro, Verses, and first
Chorus.


[Intro]

e|----0-----------0------------------|
B|------2-0---------2-0--------------|
G|--------------------------1-----1--|
D|--2-----------2-------2h4---2h4----|
A|-----------------------------------|
E|-----------------------------------|


[Verse 2]

e|----0-------------------0-----------------|
B|------0-2-----------------0-2-------------|
G|--------------1-----1-------------1-------|
D|--2-------2h4---2h4---2-------2h4---2-----|
A|--------------------------------------4---|
E|------------------------------------------| x4


[Chorus 1]
    E              B                C#m    A         B
e|--------------------------------------------------------------|
B|------5------5---4---4-----4-----9---9---10---10---7---7------|
G|----4------4-------4-----4---4-----9---9----9----9---9---9-8--|
D|--2------2----------------------------------------------------|
A|--------------------------------------------------------------|
E|--------------------------------------------------------------|


[Verse 2]

e|----12-9--------------------12-9----------------|
B|---------12------9------9--------12------9------|
G|--9---------9h11---9h11---9---------9h11---9----|
D|---------------------------------------------11-|
A|------------------------------------------------|
E|------------------------------------------------| x4


[Chorus 2]

        E
I will call on the name
        B                       C#m
I will call on the name of the Lord
    A        B
My God is greater
           E
Find my strength in the name
           B                        C#m
Find my strength in the name of the Lord
   A        B
Jesus, my Savior


[Bridge] 

A                 C#m B             E/G#
 You will not falter, You will not fail
A                   C#m B   E/G#
 For You are strong to save
A              C#m B            E/G#
 You will deliver, You will prevail
A                    B
Yes, You will make a way


[Outro]

e|------7---------4------2---|
B|---------------------------|
G|---------------------------|
D|---------------------------|
A|---------------------------|
E|---------------------------|



************************************

| h  Hammer-on

************************************
Добавлено: 27.05.2018
Другие материалы по этой песне:
  • Аккорды и текст

Страница создана 27.05.2018
http://primanota.ru/vertical-church-band/call-on-name-in-e-chords.htm
Привет, Гость.
Предлагаем пройти революционный курс по гитаре.
Подарок от PrimaNota.Ru, забирай!