PrimaNota.ru - самый крупный в мире бесплатный архив песенных текстов, аккордов, табулатур и нот


Vertical Church Band - Call On The Name - таба, видео

Регистрация Запомнить меня
Войти через:  Facebook Google Twitter Vk Yandex Mail.ru

Vertical Church Band - Call On The Name - таба, видео

Печатать
Просмотров: 54
Новый альбом группы 'Черный Кузнец' по культовому сериалу 'Сверхъестественное'!
I run a double digital delay both effects levels turned up 100 percent with one quarter note and one 
dotted-eighth note for the Intro, Verses, and first Chorus.


[Intro and Verse 1]

e|----5-2-------------5-2----------------|
B|--------5---------------5-----2-----2--|
G|--2---------------2-------2h4---2h4----|
D|---------------------------------------|
A|---------------------------------------|
E|---------------------------------------|


[Verse]

e|----5-2-----------------5-2--------------|
B|--------5-----2-----2-------5-----2------|
G|--2-------2h4---2h4---2-------2h4---2----|x4
D|--------------------------------------4--|
A|-----------------------------------------|
E|-----------------------------------------|  


[Chorus 1]

e|-----------------------0-----0---------0---------0----------0---------|
B|------10------10---9-----9-------14---------15--------12--------------|
G|----9-------9--------9-----9--------14---14----14--14----14---14-13---|x2
D|--7-------7-----------------------------------------------------------|
A|----------------------------------------------------------------------|
E|----------------------------------------------------------------------|  


[Verse 2]

e|-----17-14-------------------------17-14--------------------|
B|-----------17-------14-------14----------17-------14--------|
G|--14----------14h16----14h16----14----------14h16----14-----|x4
D|--------------------------------------------------------16--|
A|------------------------------------------------------------|
E|------------------------------------------------------------|  


[CHORUS 2] 

        A
I will call on the name
        E                       F#m
I will call on the name of the Lord
    D        E
My God is greater
           A
Find my strength in the name
           E                        F#m
Find my strength in the name of the Lord
   D        E
Jesus, my Savior


[Bridge]

e|--5-5-5-5-5-5-5-5-7-7-7-7-9--9--9--9---|
B|--7-7-7-7-7-7-5-5-9-9-9-9-10-10-10-10--|
G|--7-7-7-7-7-7-6-6-9-9-9-9-9--9--9--9---|x4
D|---------------------------------------|
A|---------------------------------------|
E|---------------------------------------|  


[Outro]

(Swells)

e|--12-----9----7--|
B|-----------------|
G|-----------------|x4
D|-----------------|
A|-----------------|
E|-----------------|  


************************************

| h   Hammer-on

************************************
Добавлено: 27.05.2018
Другие материалы по этой песне:
  • Аккорды и текст

Страница создана 27.05.2018
http://primanota.ru/vertical-church-band/call-on-name-chords.htm
Привет, Гость.
Предлагаем пройти революционный курс по гитаре.
Подарок от PrimaNota.Ru, забирай!