PrimaNota.ru - самый крупный в мире бесплатный архив песенных текстов, аккордов, табулатур и нот


Verlorene Jungs - Die Ruhe Nach Dem Sturm - таба, видео

Регистрация Запомнить меня
Войти через:  Facebook Google Twitter Vk Yandex Mail.ru

Verlorene Jungs - Die Ruhe Nach Dem Sturm - таба, видео

Печатать
Просмотров: 67
Уроки эстрадного вокала в Санкт-Петербурге
http://www.verlorenejungs.com/

Verlorene Jungs - Die Ruhe nach dem Sturm

getabbt Von MichelAndre91

Tuning :
E A D G B e

Intro:

Gitarre 1  4x spielen

   * *   * *   * *   * *   * *   * *   * *   * *
e|------------------------------------------------------------------------------------------|
B|------------------------------------------------------------------------------------------|
G|-----6-----------6-----------6-----------6------------------------------------------------|
D|-----------6-----------6-----------6-----------6--7--7--7--7--7-7-7-7-7--7--7--7--7-7-7-7-|
A|-4-4---4-4---4-4---4-4---4-4---4-4---4-4---4-4----7--7--7--7--7-7-7-7-7--7--7--7--7-7-7-7-|
E|--------------------------------------------------5--5--5--5--5-5-5-5-5--5--5--5--5-5-5-5-|

   * *   * *   * *   * *   * *   * *   * *   * *
e|------------------------------------------------------------------------------------------|
B|------------------------------------------------------------------------------------------|
G|-----6-----------6-----6-----6-----------------6------------------------------------------|
D|-----------6-----------------------6------6-------7--7--7--7--7-7-7-7-7--7--7--7--7-7-7-7-|
A|-4-4---4-4---4-4---4-4---4-4---4-4---4-4---4-4----7--7--7--7--7-7-7-7-7--7--7--7--7-7-7-7-|
E|--------------------------------------------------5--5--5--5--5-5-5-5-5--5--5--5--5-5-5-5-|


Gitarre 2  2x spielen

   * *   * *   * *   * *   * *   * *   * *   * *   * *   * *   * *   * *   * *   * *   * *
  * *
e|-------------------------------------------------------------------------------------------------|
B|-------------------------------------------------------------------------------------------------|
G|-----6-----------6-----------6-----------6-------------------------------------------------------|
D|-----------6-----------6-----------6-----------6-----7-----------7-----------7-----------7-------|
A|-4-4---4-4---4-4---4-4---4-4---4-4---4-4---4-4-------------7-----------7-----------7-----------7-|
E|-------------------------------------------------5-5---5-5---5-5---5-5---5-5---5-5---5-5---5-5---|


1. Strophe :

Gitarre 1  3x spielen

e|-----------------------------------------------------------------|
B|---------------------------------1-1-1-1-1-1-1-1-----------------|
G|---------------------------------0-0-0-0-0-0-0-0-----------------|
D|-6-6-6-6-6-6-6-6-4-4-4-4-4-4-4-4-2-2-2-2-2-2-2-2-4-4-4-4-4-4-4-4-|
A|-6-6-6-6-6-6-6-6-4-4-4-4-4-4-4-4-2-2-2-2-2-2-2-2-4-4-4-4-4-4-4-4-|
E|-4-4-4-4-4-4-4-4-2-2-2-2-2-2-2-2-----------------2-2-2-2-2-2-2-2-|


Gitarre 2  2x spielen mit harmonics

e|-----------------------------------------------------------------|
B|---------------------------------1-1-1-1-1-1-1-1-----------------|
G|---------------------------------0-0-0-0-0-0-0-0-----------------|
D|-6-6-6-6-6-6-6-6-4-4-4-4-4-4-4-4-2-2-2-2-2-2-2-2-4-4-4-4-4-4-4-4-|
A|-6-6-6-6-6-6-6-6-4-4-4-4-4-4-4-4-2-2-2-2-2-2-2-2-4-4-4-4-4-4-4-4-|
E|-4-4-4-4-4-4-4-4-2-2-2-2-2-2-2-2-----------------2-2-2-2-2-2-2-2-|


Refrain :

Gitarre 1  3x spielen

e|-----------------------------------------------------------------|
B|-----------------------------------------------------------------|
G|-----------------4-4-4-4-4-4-4-4-6-6-6-6-6-6-6-6-9-9-9-9-9-9-9-9-|
D|-6-6-6-6-6-6-6-6-4-4-4-4-4-4-4-4-6-6-6-6-6-6-6-6-9-9-9-9-9-9-9-9-|
A|-6-6-6-6-6-6-6-6-2-2-2-2-2-2-2-2-4-4-4-4-4-4-4-4-7-7-7-7-7-7-7-7-|
E|-4-4-4-4-4-4-4-4-------------------------------------------------|


Gitarre 2  3x spielen

e|---------------------------------------------|
B|---------------------------------------------|
G|---------------------------------------------|
D|---------------------------------------------|
A|------7-6-4-2~-2-7-6-4-4~-4-7-6-4-7~-7-6-4-6-|
E|-4~-4----------------------------------------|


Zwischenspiel :

Gitarre 1  2x spielen

   * *   * *   * *   * *   * *   * *   * *   * *
e|------------------------------------------------------------------------------------------|
B|------------------------------------------------------------------------------------------|
G|-----6-----------6-----------6-----------6------------------------------------------------|
D|-----------6-----------6-----------6-----------6--7--7--7--7--7-7-7-7-7--7--7--7--7-7-7-7-|
A|-4-4---4-4---4-4---4-4---4-4---4-4---4-4---4-4----7--7--7--7--7-7-7-7-7--7--7--7--7-7-7-7-|
E|--------------------------------------------------5--5--5--5--5-5-5-5-5--5--5--5--5-5-5-5-|


Gitarre 2  2x spielen

   * *   * *   * *   * *   * *   * *   * *   * *   * *   * *   * *   * *   * *   * *   * *
  * *
e|-------------------------------------------------------------------------------------------------|
B|-------------------------------------------------------------------------------------------------|
G|-----6-----------6-----------6-----------6-------------------------------------------------------|
D|-----------6-----------6-----------6-----------6-----7-----------7-----------7-----------7-------|
A|-4-4---4-4---4-4---4-4---4-4---4-4---4-4---4-4-------------7-----------7-----------7-----------7-|
E|-------------------------------------------------5-5---5-5---5-5---5-5---5-5---5-5---5-5---5-5---|


2. Strophe :

Gitarre 1

e|-----------------------------------------------------------------|
B|-----------------------------------------------------------------|
G|-9~--------------6~--------------9~--------------6~--------------|
D|-9~--------------6~--------------9~--------------6~--------------|
A|-7~--------------4~--------------7~--------------4~--------------|
E|-----------------------------------------------------------------|

Gitarre 1/2 2x spielen
e|-------------------------------------------------|
B|-------------------------------------------------|
G|-99-99-99-99-66-66-66-66-99-99-99-99-66-66-66-66-|
D|-99-99-99-99-66-66-66-66-99-99-99-99-66-66-66-66-|
A|-77-77-77-77-44-44-44-44-77-77-77-77-44-44-44-44-|
E|-------------------------------------------------|

Gitarre 1

e|---------------|
B|---------------|
G|---------------|
D|-7~-----7------|
A|-7~-------7----|
E|-5~---------5~-|


Refrain :

Gitarre 1  2x spielen

e|-----------------------------------------------------------------|
B|-----------------------------------------------------------------|
G|-----------------4-4-4-4-4-4-4-4-6-6-6-6-6-6-6-6-9-9-9-9-9-9-9-9-|
D|-6-6-6-6-6-6-6-6-4-4-4-4-4-4-4-4-6-6-6-6-6-6-6-6-9-9-9-9-9-9-9-9-|
A|-6-6-6-6-6-6-6-6-2-2-2-2-2-2-2-2-4-4-4-4-4-4-4-4-7-7-7-7-7-7-7-7-|
E|-4-4-4-4-4-4-4-4-------------------------------------------------|


Gitarre 2  2x spielen

e|---------------------------------------------|
B|---------------------------------------------|
G|---------------------------------------------|
D|---------------------------------------------|
A|------7-6-4-2~-2-7-6-4-4~-4-7-6-4-7~-7-6-4-6-|
E|-4~-4----------------------------------------|


Bridge :

Gitarre 1

e|-----------------------------------------|
B|-----------------------------------------|
G|-----------9~------------------9~--------|
D|-6~--------9~--------6~--------9~--------|
A|-6~--------7~--------6~--------7~--------|
E|-4~------------------4~------------------|


Gitarre 1/2

e|-------------------------------------------------------------------------------------------------|
B|-------------------------------------------------------------------------------------------------|
G|-------------------------99-99-99-99-99-99-99-99-------------------------99-99-99-99-99-99-99-99-|
D|-66-66-66-66-66-66-66-66-99-99-99-99-99-99-99-99-66-66-66-66-66-66-66-66-99-99-99-99-99-99-99-99-|
A|-66-66-66-66-66-66-66-66-77-77-77-77-77-77-77-77-66-66-66-66-66-66-66-66-77-77-77-77-77-77-77-77-|
E|-44-44-44-44-44-44-44-44-------------------------44-44-44-44-44-44-44-44-------------------------|


Solo :

Gitarre 1

e|-------------------------------------------------------|
B|-------------------------------------------------------|
G|-------------------------------------------------------|
D|-6~-6-6-4-4~-1-2-4-4-2-1----6~-6-6-4-4~-1-2-4-4-2-1----|
A|-------------------------2~-------------------------2~-|
E|-------------------------------------------------------|


Gitarre 2  2x spielen

e|-----------------------------------------------------------------|
B|-----------------------------------------------------------------|
G|-----------------4-4-4-4-4-4-4-4-6-6-6-6-6-6-6-6-9-9-9-9-9-9-9-9-|
D|-6-6-6-6-6-6-6-6-4-4-4-4-4-4-4-4-6-6-6-6-6-6-6-6-9-9-9-9-9-9-9-9-|
A|-6-6-6-6-6-6-6-6-2-2-2-2-2-2-2-2-4-4-4-4-4-4-4-4-7-7-7-7-7-7-7-7-|
E|-4-4-4-4-4-4-4-4-------------------------------------------------|

Gitarre 1 (nach dem Solo)

e|-----------------------------------------------------------------|
B|-----------------------------------------------------------------|
G|-9-9-9-9-9-9-9-9-4-4-4-4-4-4-4-4-6-6-6-6-6-6-6-6-9-9-9-9-9-9-9-9-|
D|-9-9-9-9-9-9-9-9-4-4-4-4-4-4-4-4-6-6-6-6-6-6-6-6-9-9-9-9-9-9-9-9-|
A|-7-7-7-7-7-7-7-7-2-2-2-2-2-2-2-2-4-4-4-4-4-4-4-4-7-7-7-7-7-7-7-7-|
E|-----------------------------------------------------------------|


Refrain :

Gitarre 1  4x spielen

e|-----------------------------------------------------------------|
B|-----------------------------------------------------------------|
G|-----------------4-4-4-4-4-4-4-4-6-6-6-6-6-6-6-6-9-9-9-9-9-9-9-9-|
D|-6-6-6-6-6-6-6-6-4-4-4-4-4-4-4-4-6-6-6-6-6-6-6-6-9-9-9-9-9-9-9-9-|
A|-6-6-6-6-6-6-6-6-2-2-2-2-2-2-2-2-4-4-4-4-4-4-4-4-7-7-7-7-7-7-7-7-|
E|-4-4-4-4-4-4-4-4-------------------------------------------------|


Gitarre 2  4x spielen

e|---------------------------------------------|
B|---------------------------------------------|
G|---------------------------------------------|
D|---------------------------------------------|
A|------7-6-4-2~-2-7-6-4-4~-4-7-6-4-7~-7-6-4-6-|
E|-4~-4----------------------------------------|


Ende :

Gitarre 1/2

e|--------|
B|--------|
G|--------|
D|-6~-----|
A|-6~-----|
E|-4~-----|


* = PM
~ = Saite klingen lassen

Das ist jetzt mein erstes selbst getabbtes Lied :)
Den Rhytmus müsst ihr den Lied entnehmen oder halt nach Gefühl spielen.

Viel Spaß :)
Добавлено: 08.11.2013
Вам также может быть интересно:
Другие материалы по этой песне:
  • Аккорды и текст

Страница создана 08.11.2013
http://primanota.ru/verlorene-jungs/die-ruhe-nach-dem-sturm-chords.htm
Привет, Гость.
Предлагаем пройти революционный курс по гитаре.
Подарок от PrimaNota.Ru, забирай!